ISO-10303-21;
HEADER;
/* Generated by software containing ST-Developer
 * from STEP Tools, Inc. (www.steptools.com) 
 */

FILE_DESCRIPTION(
/* description */ (''),
/* implementation_level */ '2;1');

FILE_NAME(
/* name */ 'D SQUARE T-NUT (M5.SQ.T.NUT).stp',
/* time_stamp */ '2023-03-01T15:15:26+02:00',
/* author */ ('arnold.brand'),
/* organization */ (''),
/* preprocessor_version */ 'ST-DEVELOPER v19.2',
/* originating_system */ 'Autodesk Inventor 2023',
/* authorisation */ '');

FILE_SCHEMA (('AUTOMOTIVE_DESIGN { 1 0 10303 214 3 1 1 }'));
ENDSEC;

DATA;
#10=MECHANICAL_DESIGN_GEOMETRIC_PRESENTATION_REPRESENTATION('',(#13),#573);
#11=SHAPE_REPRESENTATION_RELATIONSHIP('SRR','None',#580,#12);
#12=ADVANCED_BREP_SHAPE_REPRESENTATION('',(#14),#572);
#13=STYLED_ITEM('',(#589),#14);
#14=MANIFOLD_SOLID_BREP('Solid3',#328);
#15=FACE_BOUND('',#56,.T.);
#16=FACE_BOUND('',#62,.T.);
#17=PLANE('',#354);
#18=PLANE('',#355);
#19=PLANE('',#363);
#20=PLANE('',#364);
#21=PLANE('',#370);
#22=PLANE('',#372);
#23=PLANE('',#374);
#24=PLANE('',#379);
#25=PLANE('',#380);
#26=PLANE('',#381);
#27=FACE_OUTER_BOUND('',#44,.T.);
#28=FACE_OUTER_BOUND('',#45,.T.);
#29=FACE_OUTER_BOUND('',#46,.T.);
#30=FACE_OUTER_BOUND('',#47,.T.);
#31=FACE_OUTER_BOUND('',#48,.T.);
#32=FACE_OUTER_BOUND('',#49,.T.);
#33=FACE_OUTER_BOUND('',#50,.T.);
#34=FACE_OUTER_BOUND('',#51,.T.);
#35=FACE_OUTER_BOUND('',#52,.T.);
#36=FACE_OUTER_BOUND('',#53,.T.);
#37=FACE_OUTER_BOUND('',#54,.T.);
#38=FACE_OUTER_BOUND('',#55,.T.);
#39=FACE_OUTER_BOUND('',#57,.T.);
#40=FACE_OUTER_BOUND('',#58,.T.);
#41=FACE_OUTER_BOUND('',#59,.T.);
#42=FACE_OUTER_BOUND('',#60,.T.);
#43=FACE_OUTER_BOUND('',#61,.T.);
#44=EDGE_LOOP('',(#214,#215,#216,#217));
#45=EDGE_LOOP('',(#218,#219,#220,#221));
#46=EDGE_LOOP('',(#222,#223,#224,#225,#226,#227,#228,#229,#230,#231,#232,
#233,#234,#235));
#47=EDGE_LOOP('',(#236,#237,#238,#239));
#48=EDGE_LOOP('',(#240,#241,#242,#243));
#49=EDGE_LOOP('',(#244,#245,#246,#247,#248,#249,#250,#251,#252,#253,#254,
#255,#256,#257));
#50=EDGE_LOOP('',(#258,#259,#260,#261));
#51=EDGE_LOOP('',(#262,#263,#264,#265));
#52=EDGE_LOOP('',(#266,#267,#268,#269));
#53=EDGE_LOOP('',(#270,#271,#272,#273));
#54=EDGE_LOOP('',(#274,#275,#276,#277));
#55=EDGE_LOOP('',(#278,#279,#280,#281));
#56=EDGE_LOOP('',(#282));
#57=EDGE_LOOP('',(#283,#284,#285,#286));
#58=EDGE_LOOP('',(#287,#288,#289,#290));
#59=EDGE_LOOP('',(#291,#292,#293,#294));
#60=EDGE_LOOP('',(#295,#296,#297,#298));
#61=EDGE_LOOP('',(#299,#300,#301,#302));
#62=EDGE_LOOP('',(#303));
#63=LINE('',#483,#94);
#64=LINE('',#486,#95);
#65=LINE('',#489,#96);
#66=LINE('',#491,#97);
#67=LINE('',#492,#98);
#68=LINE('',#495,#99);
#69=LINE('',#499,#100);
#70=LINE('',#501,#101);
#71=LINE('',#505,#102);
#72=LINE('',#509,#103);
#73=LINE('',#513,#104);
#74=LINE('',#516,#105);
#75=LINE('',#519,#106);
#76=LINE('',#522,#107);
#77=LINE('',#525,#108);
#78=LINE('',#526,#109);
#79=LINE('',#529,#110);
#80=LINE('',#533,#111);
#81=LINE('',#537,#112);
#82=LINE('',#541,#113);
#83=LINE('',#544,#114);
#84=LINE('',#545,#115);
#85=LINE('',#547,#116);
#86=LINE('',#548,#117);
#87=LINE('',#550,#118);
#88=LINE('',#552,#119);
#89=LINE('',#553,#120);
#90=LINE('',#556,#121);
#91=LINE('',#557,#122);
#92=LINE('',#559,#123);
#93=LINE('',#566,#124);
#94=VECTOR('',#388,10.);
#95=VECTOR('',#391,10.);
#96=VECTOR('',#394,10.);
#97=VECTOR('',#395,10.);
#98=VECTOR('',#396,10.);
#99=VECTOR('',#399,10.);
#100=VECTOR('',#402,10.);
#101=VECTOR('',#403,10.);
#102=VECTOR('',#406,10.);
#103=VECTOR('',#409,10.);
#104=VECTOR('',#412,10.);
#105=VECTOR('',#415,10.);
#106=VECTOR('',#418,10.);
#107=VECTOR('',#421,10.);
#108=VECTOR('',#424,10.);
#109=VECTOR('',#425,10.);
#110=VECTOR('',#428,10.);
#111=VECTOR('',#431,10.);
#112=VECTOR('',#434,10.);
#113=VECTOR('',#437,10.);
#114=VECTOR('',#440,10.);
#115=VECTOR('',#441,10.);
#116=VECTOR('',#444,0.1);
#117=VECTOR('',#445,0.1);
#118=VECTOR('',#448,10.);
#119=VECTOR('',#451,0.1);
#120=VECTOR('',#452,0.1);
#121=VECTOR('',#457,10.);
#122=VECTOR('',#458,10.);
#123=VECTOR('',#461,10.);
#124=VECTOR('',#470,2.067);
#125=CIRCLE('',#352,0.2);
#126=CIRCLE('',#353,0.2);
#127=CIRCLE('',#356,0.2);
#128=CIRCLE('',#357,0.1);
#129=CIRCLE('',#358,0.1);
#130=CIRCLE('',#359,0.1);
#131=CIRCLE('',#360,0.1);
#132=CIRCLE('',#362,0.2);
#133=CIRCLE('',#365,0.1);
#134=CIRCLE('',#366,0.1);
#135=CIRCLE('',#367,0.1);
#136=CIRCLE('',#368,0.1);
#137=CIRCLE('',#375,2.067);
#138=CIRCLE('',#378,2.067);
#139=VERTEX_POINT('',#479);
#140=VERTEX_POINT('',#480);
#141=VERTEX_POINT('',#482);
#142=VERTEX_POINT('',#484);
#143=VERTEX_POINT('',#488);
#144=VERTEX_POINT('',#490);
#145=VERTEX_POINT('',#494);
#146=VERTEX_POINT('',#496);
#147=VERTEX_POINT('',#498);
#148=VERTEX_POINT('',#500);
#149=VERTEX_POINT('',#502);
#150=VERTEX_POINT('',#504);
#151=VERTEX_POINT('',#506);
#152=VERTEX_POINT('',#508);
#153=VERTEX_POINT('',#510);
#154=VERTEX_POINT('',#512);
#155=VERTEX_POINT('',#514);
#156=VERTEX_POINT('',#518);
#157=VERTEX_POINT('',#520);
#158=VERTEX_POINT('',#524);
#159=VERTEX_POINT('',#528);
#160=VERTEX_POINT('',#530);
#161=VERTEX_POINT('',#532);
#162=VERTEX_POINT('',#534);
#163=VERTEX_POINT('',#536);
#164=VERTEX_POINT('',#538);
#165=VERTEX_POINT('',#540);
#166=VERTEX_POINT('',#542);
#167=VERTEX_POINT('',#560);
#168=VERTEX_POINT('',#564);
#169=EDGE_CURVE('',#139,#140,#125,.T.);
#170=EDGE_CURVE('',#140,#141,#63,.T.);
#171=EDGE_CURVE('',#141,#142,#126,.T.);
#172=EDGE_CURVE('',#142,#139,#64,.T.);
#173=EDGE_CURVE('',#143,#140,#65,.T.);
#174=EDGE_CURVE('',#144,#143,#66,.T.);
#175=EDGE_CURVE('',#141,#144,#67,.T.);
#176=EDGE_CURVE('',#139,#145,#68,.T.);
#177=EDGE_CURVE('',#146,#145,#127,.T.);
#178=EDGE_CURVE('',#146,#147,#69,.T.);
#179=EDGE_CURVE('',#147,#148,#70,.T.);
#180=EDGE_CURVE('',#149,#148,#128,.T.);
#181=EDGE_CURVE('',#149,#150,#71,.T.);
#182=EDGE_CURVE('',#151,#150,#129,.T.);
#183=EDGE_CURVE('',#151,#152,#72,.T.);
#184=EDGE_CURVE('',#153,#152,#130,.T.);
#185=EDGE_CURVE('',#153,#154,#73,.T.);
#186=EDGE_CURVE('',#155,#154,#131,.T.);
#187=EDGE_CURVE('',#155,#143,#74,.T.);
#188=EDGE_CURVE('',#145,#156,#75,.T.);
#189=EDGE_CURVE('',#156,#157,#132,.T.);
#190=EDGE_CURVE('',#157,#146,#76,.T.);
#191=EDGE_CURVE('',#158,#157,#77,.T.);
#192=EDGE_CURVE('',#158,#147,#78,.T.);
#193=EDGE_CURVE('',#144,#159,#79,.T.);
#194=EDGE_CURVE('',#160,#159,#133,.T.);
#195=EDGE_CURVE('',#160,#161,#80,.T.);
#196=EDGE_CURVE('',#162,#161,#134,.T.);
#197=EDGE_CURVE('',#162,#163,#81,.T.);
#198=EDGE_CURVE('',#164,#163,#135,.T.);
#199=EDGE_CURVE('',#164,#165,#82,.T.);
#200=EDGE_CURVE('',#166,#165,#136,.T.);
#201=EDGE_CURVE('',#166,#158,#83,.T.);
#202=EDGE_CURVE('',#156,#142,#84,.T.);
#203=EDGE_CURVE('',#165,#149,#85,.T.);
#204=EDGE_CURVE('',#148,#166,#86,.T.);
#205=EDGE_CURVE('',#150,#164,#87,.T.);
#206=EDGE_CURVE('',#159,#155,#88,.T.);
#207=EDGE_CURVE('',#154,#160,#89,.T.);
#208=EDGE_CURVE('',#152,#162,#90,.T.);
#209=EDGE_CURVE('',#161,#153,#91,.T.);
#210=EDGE_CURVE('',#163,#151,#92,.T.);
#211=EDGE_CURVE('',#167,#167,#137,.T.);
#212=EDGE_CURVE('',#168,#168,#138,.T.);
#213=EDGE_CURVE('',#168,#167,#93,.T.);
#214=ORIENTED_EDGE('',*,*,#169,.T.);
#215=ORIENTED_EDGE('',*,*,#170,.T.);
#216=ORIENTED_EDGE('',*,*,#171,.T.);
#217=ORIENTED_EDGE('',*,*,#172,.T.);
#218=ORIENTED_EDGE('',*,*,#170,.F.);
#219=ORIENTED_EDGE('',*,*,#173,.F.);
#220=ORIENTED_EDGE('',*,*,#174,.F.);
#221=ORIENTED_EDGE('',*,*,#175,.F.);
#222=ORIENTED_EDGE('',*,*,#169,.F.);
#223=ORIENTED_EDGE('',*,*,#176,.T.);
#224=ORIENTED_EDGE('',*,*,#177,.F.);
#225=ORIENTED_EDGE('',*,*,#178,.T.);
#226=ORIENTED_EDGE('',*,*,#179,.T.);
#227=ORIENTED_EDGE('',*,*,#180,.F.);
#228=ORIENTED_EDGE('',*,*,#181,.T.);
#229=ORIENTED_EDGE('',*,*,#182,.F.);
#230=ORIENTED_EDGE('',*,*,#183,.T.);
#231=ORIENTED_EDGE('',*,*,#184,.F.);
#232=ORIENTED_EDGE('',*,*,#185,.T.);
#233=ORIENTED_EDGE('',*,*,#186,.F.);
#234=ORIENTED_EDGE('',*,*,#187,.T.);
#235=ORIENTED_EDGE('',*,*,#173,.T.);
#236=ORIENTED_EDGE('',*,*,#177,.T.);
#237=ORIENTED_EDGE('',*,*,#188,.T.);
#238=ORIENTED_EDGE('',*,*,#189,.T.);
#239=ORIENTED_EDGE('',*,*,#190,.T.);
#240=ORIENTED_EDGE('',*,*,#190,.F.);
#241=ORIENTED_EDGE('',*,*,#191,.F.);
#242=ORIENTED_EDGE('',*,*,#192,.T.);
#243=ORIENTED_EDGE('',*,*,#178,.F.);
#244=ORIENTED_EDGE('',*,*,#171,.F.);
#245=ORIENTED_EDGE('',*,*,#175,.T.);
#246=ORIENTED_EDGE('',*,*,#193,.T.);
#247=ORIENTED_EDGE('',*,*,#194,.F.);
#248=ORIENTED_EDGE('',*,*,#195,.T.);
#249=ORIENTED_EDGE('',*,*,#196,.F.);
#250=ORIENTED_EDGE('',*,*,#197,.T.);
#251=ORIENTED_EDGE('',*,*,#198,.F.);
#252=ORIENTED_EDGE('',*,*,#199,.T.);
#253=ORIENTED_EDGE('',*,*,#200,.F.);
#254=ORIENTED_EDGE('',*,*,#201,.T.);
#255=ORIENTED_EDGE('',*,*,#191,.T.);
#256=ORIENTED_EDGE('',*,*,#189,.F.);
#257=ORIENTED_EDGE('',*,*,#202,.T.);
#258=ORIENTED_EDGE('',*,*,#200,.T.);
#259=ORIENTED_EDGE('',*,*,#203,.T.);
#260=ORIENTED_EDGE('',*,*,#180,.T.);
#261=ORIENTED_EDGE('',*,*,#204,.T.);
#262=ORIENTED_EDGE('',*,*,#203,.F.);
#263=ORIENTED_EDGE('',*,*,#199,.F.);
#264=ORIENTED_EDGE('',*,*,#205,.F.);
#265=ORIENTED_EDGE('',*,*,#181,.F.);
#266=ORIENTED_EDGE('',*,*,#194,.T.);
#267=ORIENTED_EDGE('',*,*,#206,.T.);
#268=ORIENTED_EDGE('',*,*,#186,.T.);
#269=ORIENTED_EDGE('',*,*,#207,.T.);
#270=ORIENTED_EDGE('',*,*,#206,.F.);
#271=ORIENTED_EDGE('',*,*,#193,.F.);
#272=ORIENTED_EDGE('',*,*,#174,.T.);
#273=ORIENTED_EDGE('',*,*,#187,.F.);
#274=ORIENTED_EDGE('',*,*,#184,.T.);
#275=ORIENTED_EDGE('',*,*,#208,.T.);
#276=ORIENTED_EDGE('',*,*,#196,.T.);
#277=ORIENTED_EDGE('',*,*,#209,.T.);
#278=ORIENTED_EDGE('',*,*,#208,.F.);
#279=ORIENTED_EDGE('',*,*,#183,.F.);
#280=ORIENTED_EDGE('',*,*,#210,.F.);
#281=ORIENTED_EDGE('',*,*,#197,.F.);
#282=ORIENTED_EDGE('',*,*,#211,.T.);
#283=ORIENTED_EDGE('',*,*,#182,.T.);
#284=ORIENTED_EDGE('',*,*,#205,.T.);
#285=ORIENTED_EDGE('',*,*,#198,.T.);
#286=ORIENTED_EDGE('',*,*,#210,.T.);
#287=ORIENTED_EDGE('',*,*,#212,.F.);
#288=ORIENTED_EDGE('',*,*,#213,.T.);
#289=ORIENTED_EDGE('',*,*,#211,.F.);
#290=ORIENTED_EDGE('',*,*,#213,.F.);
#291=ORIENTED_EDGE('',*,*,#207,.F.);
#292=ORIENTED_EDGE('',*,*,#185,.F.);
#293=ORIENTED_EDGE('',*,*,#209,.F.);
#294=ORIENTED_EDGE('',*,*,#195,.F.);
#295=ORIENTED_EDGE('',*,*,#204,.F.);
#296=ORIENTED_EDGE('',*,*,#179,.F.);
#297=ORIENTED_EDGE('',*,*,#192,.F.);
#298=ORIENTED_EDGE('',*,*,#201,.F.);
#299=ORIENTED_EDGE('',*,*,#172,.F.);
#300=ORIENTED_EDGE('',*,*,#202,.F.);
#301=ORIENTED_EDGE('',*,*,#188,.F.);
#302=ORIENTED_EDGE('',*,*,#176,.F.);
#303=ORIENTED_EDGE('',*,*,#212,.T.);
#304=CYLINDRICAL_SURFACE('',#351,0.2);
#305=CYLINDRICAL_SURFACE('',#361,0.2);
#306=CYLINDRICAL_SURFACE('',#369,0.1);
#307=CYLINDRICAL_SURFACE('',#371,0.1);
#308=CYLINDRICAL_SURFACE('',#373,0.1);
#309=CYLINDRICAL_SURFACE('',#376,0.1);
#310=CYLINDRICAL_SURFACE('',#377,2.067);
#311=ADVANCED_FACE('',(#27),#304,.T.);
#312=ADVANCED_FACE('',(#28),#17,.T.);
#313=ADVANCED_FACE('',(#29),#18,.T.);
#314=ADVANCED_FACE('',(#30),#305,.T.);
#315=ADVANCED_FACE('',(#31),#19,.T.);
#316=ADVANCED_FACE('',(#32),#20,.T.);
#317=ADVANCED_FACE('',(#33),#306,.T.);
#318=ADVANCED_FACE('',(#34),#21,.T.);
#319=ADVANCED_FACE('',(#35),#307,.T.);
#320=ADVANCED_FACE('',(#36),#22,.T.);
#321=ADVANCED_FACE('',(#37),#308,.T.);
#322=ADVANCED_FACE('',(#38,#15),#23,.T.);
#323=ADVANCED_FACE('',(#39),#309,.T.);
#324=ADVANCED_FACE('',(#40),#310,.F.);
#325=ADVANCED_FACE('',(#41),#24,.T.);
#326=ADVANCED_FACE('',(#42),#25,.T.);
#327=ADVANCED_FACE('',(#43,#16),#26,.T.);
#328=CLOSED_SHELL('',(#311,#312,#313,#314,#315,#316,#317,#318,#319,#320,
#321,#322,#323,#324,#325,#326,#327));
#329=DERIVED_UNIT_ELEMENT(#332,1.);
#330=DERIVED_UNIT_ELEMENT(#575,-3.);
#331=DIMENSIONAL_EXPONENTS(0.,1.,0.,0.,0.,0.,0.);
#332=(
CONVERSION_BASED_UNIT('gram',#334)
MASS_UNIT()
NAMED_UNIT(#331)
);
#333=(
MASS_UNIT()
NAMED_UNIT(*)
SI_UNIT(.KILO.,.GRAM.)
);
#334=MASS_MEASURE_WITH_UNIT(MASS_MEASURE(0.001),#333);
#335=DERIVED_UNIT((#329,#330));
#336=MEASURE_REPRESENTATION_ITEM('density measure',
POSITIVE_RATIO_MEASURE(7.85),#335);
#337=PROPERTY_DEFINITION_REPRESENTATION(#342,#339);
#338=PROPERTY_DEFINITION_REPRESENTATION(#343,#340);
#339=REPRESENTATION('material name',(#341),#572);
#340=REPRESENTATION('density',(#336),#572);
#341=DESCRIPTIVE_REPRESENTATION_ITEM('Steel, Mild','Steel, Mild');
#342=PROPERTY_DEFINITION('material property','material name',#582);
#343=PROPERTY_DEFINITION('material property','density of part',#582);
#344=DATE_TIME_ROLE('creation_date');
#345=APPLIED_DATE_AND_TIME_ASSIGNMENT(#346,#344,(#582));
#346=DATE_AND_TIME(#347,#348);
#347=CALENDAR_DATE(2023,14,2);
#348=LOCAL_TIME(0,0,0.,#349);
#349=COORDINATED_UNIVERSAL_TIME_OFFSET(0,0,.BEHIND.);
#350=AXIS2_PLACEMENT_3D('',#477,#382,#383);
#351=AXIS2_PLACEMENT_3D('',#478,#384,#385);
#352=AXIS2_PLACEMENT_3D('',#481,#386,#387);
#353=AXIS2_PLACEMENT_3D('',#485,#389,#390);
#354=AXIS2_PLACEMENT_3D('',#487,#392,#393);
#355=AXIS2_PLACEMENT_3D('',#493,#397,#398);
#356=AXIS2_PLACEMENT_3D('',#497,#400,#401);
#357=AXIS2_PLACEMENT_3D('',#503,#404,#405);
#358=AXIS2_PLACEMENT_3D('',#507,#407,#408);
#359=AXIS2_PLACEMENT_3D('',#511,#410,#411);
#360=AXIS2_PLACEMENT_3D('',#515,#413,#414);
#361=AXIS2_PLACEMENT_3D('',#517,#416,#417);
#362=AXIS2_PLACEMENT_3D('',#521,#419,#420);
#363=AXIS2_PLACEMENT_3D('',#523,#422,#423);
#364=AXIS2_PLACEMENT_3D('',#527,#426,#427);
#365=AXIS2_PLACEMENT_3D('',#531,#429,#430);
#366=AXIS2_PLACEMENT_3D('',#535,#432,#433);
#367=AXIS2_PLACEMENT_3D('',#539,#435,#436);
#368=AXIS2_PLACEMENT_3D('',#543,#438,#439);
#369=AXIS2_PLACEMENT_3D('',#546,#442,#443);
#370=AXIS2_PLACEMENT_3D('',#549,#446,#447);
#371=AXIS2_PLACEMENT_3D('',#551,#449,#450);
#372=AXIS2_PLACEMENT_3D('',#554,#453,#454);
#373=AXIS2_PLACEMENT_3D('',#555,#455,#456);
#374=AXIS2_PLACEMENT_3D('',#558,#459,#460);
#375=AXIS2_PLACEMENT_3D('',#561,#462,#463);
#376=AXIS2_PLACEMENT_3D('',#562,#464,#465);
#377=AXIS2_PLACEMENT_3D('',#563,#466,#467);
#378=AXIS2_PLACEMENT_3D('',#565,#468,#469);
#379=AXIS2_PLACEMENT_3D('',#567,#471,#472);
#380=AXIS2_PLACEMENT_3D('',#568,#473,#474);
#381=AXIS2_PLACEMENT_3D('',#569,#475,#476);
#382=DIRECTION('axis',(0.,0.,1.));
#383=DIRECTION('refdir',(1.,0.,0.));
#384=DIRECTION('center_axis',(1.,0.,0.));
#385=DIRECTION('ref_axis',(0.,0.707106781186548,0.707106781186548));
#386=DIRECTION('center_axis',(-1.,0.,0.));
#387=DIRECTION('ref_axis',(0.,0.707106781186548,0.707106781186548));
#388=DIRECTION('',(-1.,0.,0.));
#389=DIRECTION('center_axis',(1.,0.,0.));
#390=DIRECTION('ref_axis',(0.,0.707106781186548,0.707106781186548));
#391=DIRECTION('',(1.,0.,0.));
#392=DIRECTION('center_axis',(0.,1.,0.));
#393=DIRECTION('ref_axis',(0.,0.,1.));
#394=DIRECTION('',(0.,0.,1.));
#395=DIRECTION('',(1.,0.,0.));
#396=DIRECTION('',(0.,0.,-1.));
#397=DIRECTION('center_axis',(1.,0.,0.));
#398=DIRECTION('ref_axis',(0.,0.,-1.));
#399=DIRECTION('',(0.,-1.,0.));
#400=DIRECTION('center_axis',(-1.,0.,0.));
#401=DIRECTION('ref_axis',(0.,-0.707106781186548,0.707106781186548));
#402=DIRECTION('',(0.,0.,-1.));
#403=DIRECTION('',(0.,-1.,0.));
#404=DIRECTION('center_axis',(-1.,0.,0.));
#405=DIRECTION('ref_axis',(0.,0.,1.));
#406=DIRECTION('',(0.,0.64278760968654,-0.766044443118978));
#407=DIRECTION('center_axis',(-1.,0.,0.));
#408=DIRECTION('ref_axis',(0.,-0.4226182617407,-0.90630778703665));
#409=DIRECTION('',(0.,1.,0.));
#410=DIRECTION('center_axis',(-1.,0.,0.));
#411=DIRECTION('ref_axis',(0.,0.4226182617407,-0.90630778703665));
#412=DIRECTION('',(0.,0.64278760968654,0.766044443118978));
#413=DIRECTION('center_axis',(-1.,0.,0.));
#414=DIRECTION('ref_axis',(0.,0.766044443118978,-0.642787609686539));
#415=DIRECTION('',(0.,-1.,0.));
#416=DIRECTION('center_axis',(1.,0.,0.));
#417=DIRECTION('ref_axis',(0.,-0.707106781186548,0.707106781186548));
#418=DIRECTION('',(-1.,0.,0.));
#419=DIRECTION('center_axis',(1.,0.,0.));
#420=DIRECTION('ref_axis',(0.,-0.707106781186548,0.707106781186548));
#421=DIRECTION('',(1.,0.,0.));
#422=DIRECTION('center_axis',(0.,-1.,0.));
#423=DIRECTION('ref_axis',(0.,0.,-1.));
#424=DIRECTION('',(0.,0.,1.));
#425=DIRECTION('',(1.,0.,0.));
#426=DIRECTION('center_axis',(-1.,0.,0.));
#427=DIRECTION('ref_axis',(0.,0.,1.));
#428=DIRECTION('',(0.,1.,0.));
#429=DIRECTION('center_axis',(1.,0.,0.));
#430=DIRECTION('ref_axis',(0.,0.766044443118978,-0.642787609686539));
#431=DIRECTION('',(0.,-0.64278760968654,-0.766044443118978));
#432=DIRECTION('center_axis',(1.,0.,0.));
#433=DIRECTION('ref_axis',(0.,0.4226182617407,-0.90630778703665));
#434=DIRECTION('',(0.,-1.,0.));
#435=DIRECTION('center_axis',(1.,0.,0.));
#436=DIRECTION('ref_axis',(0.,-0.4226182617407,-0.90630778703665));
#437=DIRECTION('',(0.,-0.64278760968654,0.766044443118978));
#438=DIRECTION('center_axis',(1.,0.,0.));
#439=DIRECTION('ref_axis',(0.,0.,1.));
#440=DIRECTION('',(0.,1.,0.));
#441=DIRECTION('',(0.,1.,0.));
#442=DIRECTION('center_axis',(1.,0.,0.));
#443=DIRECTION('ref_axis',(0.,0.,1.));
#444=DIRECTION('',(1.,0.,0.));
#445=DIRECTION('',(-1.,0.,0.));
#446=DIRECTION('center_axis',(0.,-0.766044443118978,-0.64278760968654));
#447=DIRECTION('ref_axis',(0.,0.64278760968654,-0.766044443118978));
#448=DIRECTION('',(-1.,0.,0.));
#449=DIRECTION('center_axis',(1.,0.,0.));
#450=DIRECTION('ref_axis',(0.,0.766044443118978,-0.642787609686539));
#451=DIRECTION('',(1.,0.,0.));
#452=DIRECTION('',(-1.,0.,0.));
#453=DIRECTION('center_axis',(0.,0.,1.));
#454=DIRECTION('ref_axis',(0.,-1.,0.));
#455=DIRECTION('center_axis',(1.,0.,0.));
#456=DIRECTION('ref_axis',(0.,0.4226182617407,-0.90630778703665));
#457=DIRECTION('',(-1.,0.,0.));
#458=DIRECTION('',(1.,0.,0.));
#459=DIRECTION('center_axis',(0.,0.,-1.));
#460=DIRECTION('ref_axis',(0.,1.,0.));
#461=DIRECTION('',(1.,0.,0.));
#462=DIRECTION('center_axis',(0.,0.,1.));
#463=DIRECTION('ref_axis',(1.,0.,0.));
#464=DIRECTION('center_axis',(1.,0.,0.));
#465=DIRECTION('ref_axis',(0.,-0.4226182617407,-0.90630778703665));
#466=DIRECTION('center_axis',(0.,0.,1.));
#467=DIRECTION('ref_axis',(1.,0.,0.));
#468=DIRECTION('center_axis',(0.,0.,-1.));
#469=DIRECTION('ref_axis',(1.,0.,0.));
#470=DIRECTION('',(0.,0.,-1.));
#471=DIRECTION('center_axis',(0.,0.766044443118978,-0.64278760968654));
#472=DIRECTION('ref_axis',(0.,0.64278760968654,0.766044443118978));
#473=DIRECTION('center_axis',(0.,0.,1.));
#474=DIRECTION('ref_axis',(0.,-1.,0.));
#475=DIRECTION('center_axis',(0.,0.,1.));
#476=DIRECTION('ref_axis',(0.,-1.,0.));
#477=CARTESIAN_POINT('',(0.,0.,0.));
#478=CARTESIAN_POINT('Origin',(0.,2.725,2.05));
#479=CARTESIAN_POINT('',(5.25,2.725,2.25));
#480=CARTESIAN_POINT('',(5.25,2.925,2.05));
#481=CARTESIAN_POINT('Origin',(5.25,2.725,2.05));
#482=CARTESIAN_POINT('',(-5.25,2.925,2.05));
#483=CARTESIAN_POINT('',(0.,2.925,2.05));
#484=CARTESIAN_POINT('',(-5.25,2.725,2.25));
#485=CARTESIAN_POINT('Origin',(-5.25,2.725,2.05));
#486=CARTESIAN_POINT('',(0.,2.725,2.25));
#487=CARTESIAN_POINT('Origin',(0.,2.925,1.1));
#488=CARTESIAN_POINT('',(5.25,2.925,1.1));
#489=CARTESIAN_POINT('',(5.25,2.925,1.1));
#490=CARTESIAN_POINT('',(-5.25,2.925,1.1));
#491=CARTESIAN_POINT('',(0.,2.925,1.1));
#492=CARTESIAN_POINT('',(-5.25,2.925,1.1));
#493=CARTESIAN_POINT('Origin',(5.25,0.,-2.77555756156289E-16));
#494=CARTESIAN_POINT('',(5.25,-2.725,2.25));
#495=CARTESIAN_POINT('',(5.25,5.,2.25));
#496=CARTESIAN_POINT('',(5.25,-2.925,2.05));
#497=CARTESIAN_POINT('Origin',(5.25,-2.725,2.05));
#498=CARTESIAN_POINT('',(5.25,-2.925,1.1));
#499=CARTESIAN_POINT('',(5.25,-2.925,2.25));
#500=CARTESIAN_POINT('',(5.25,-4.89653307239293,1.1));
#501=CARTESIAN_POINT('',(5.25,-2.925,1.1));
#502=CARTESIAN_POINT('',(5.25,-4.97313751670483,0.935721239031346));
#503=CARTESIAN_POINT('Origin',(5.25,-4.89653307239293,1.));
#504=CARTESIAN_POINT('',(5.25,-2.3299736784964,-2.21427876096865));
#505=CARTESIAN_POINT('',(5.25,-5.,0.967734700004365));
#506=CARTESIAN_POINT('',(5.25,-2.2533692341845,-2.25));
#507=CARTESIAN_POINT('Origin',(5.25,-2.2533692341845,-2.15));
#508=CARTESIAN_POINT('',(5.25,2.2533692341845,-2.25));
#509=CARTESIAN_POINT('',(5.25,-5.,-2.25));
#510=CARTESIAN_POINT('',(5.25,2.3299736784964,-2.21427876096865));
#511=CARTESIAN_POINT('Origin',(5.25,2.2533692341845,-2.15));
#512=CARTESIAN_POINT('',(5.25,4.97313751670483,0.935721239031346));
#513=CARTESIAN_POINT('',(5.25,2.3,-2.25));
#514=CARTESIAN_POINT('',(5.25,4.89653307239293,1.1));
#515=CARTESIAN_POINT('Origin',(5.25,4.89653307239293,1.));
#516=CARTESIAN_POINT('',(5.25,5.,1.1));
#517=CARTESIAN_POINT('Origin',(0.,-2.725,2.05));
#518=CARTESIAN_POINT('',(-5.25,-2.725,2.25));
#519=CARTESIAN_POINT('',(0.,-2.725,2.25));
#520=CARTESIAN_POINT('',(-5.25,-2.925,2.05));
#521=CARTESIAN_POINT('Origin',(-5.25,-2.725,2.05));
#522=CARTESIAN_POINT('',(0.,-2.925,2.05));
#523=CARTESIAN_POINT('Origin',(0.,-2.925,2.25));
#524=CARTESIAN_POINT('',(-5.25,-2.925,1.1));
#525=CARTESIAN_POINT('',(-5.25,-2.925,2.25));
#526=CARTESIAN_POINT('',(0.,-2.925,1.1));
#527=CARTESIAN_POINT('Origin',(-5.25,0.,-2.77555756156289E-16));
#528=CARTESIAN_POINT('',(-5.25,4.89653307239293,1.1));
#529=CARTESIAN_POINT('',(-5.25,5.,1.1));
#530=CARTESIAN_POINT('',(-5.25,4.97313751670483,0.935721239031346));
#531=CARTESIAN_POINT('Origin',(-5.25,4.89653307239293,1.));
#532=CARTESIAN_POINT('',(-5.25,2.3299736784964,-2.21427876096865));
#533=CARTESIAN_POINT('',(-5.25,2.3,-2.25));
#534=CARTESIAN_POINT('',(-5.25,2.2533692341845,-2.25));
#535=CARTESIAN_POINT('Origin',(-5.25,2.2533692341845,-2.15));
#536=CARTESIAN_POINT('',(-5.25,-2.2533692341845,-2.25));
#537=CARTESIAN_POINT('',(-5.25,-5.,-2.25));
#538=CARTESIAN_POINT('',(-5.25,-2.3299736784964,-2.21427876096865));
#539=CARTESIAN_POINT('Origin',(-5.25,-2.2533692341845,-2.15));
#540=CARTESIAN_POINT('',(-5.25,-4.97313751670483,0.935721239031346));
#541=CARTESIAN_POINT('',(-5.25,-5.,0.967734700004365));
#542=CARTESIAN_POINT('',(-5.25,-4.89653307239293,1.1));
#543=CARTESIAN_POINT('Origin',(-5.25,-4.89653307239293,1.));
#544=CARTESIAN_POINT('',(-5.25,-2.925,1.1));
#545=CARTESIAN_POINT('',(-5.25,5.,2.25));
#546=CARTESIAN_POINT('Origin',(0.,-4.89653307239293,1.));
#547=CARTESIAN_POINT('',(0.,-4.97313751670483,0.935721239031346));
#548=CARTESIAN_POINT('',(0.,-4.89653307239293,1.1));
#549=CARTESIAN_POINT('Origin',(0.,-5.,0.967734700004365));
#550=CARTESIAN_POINT('',(0.,-2.3299736784964,-2.21427876096865));
#551=CARTESIAN_POINT('Origin',(0.,4.89653307239293,1.));
#552=CARTESIAN_POINT('',(0.,4.89653307239293,1.1));
#553=CARTESIAN_POINT('',(0.,4.97313751670483,0.935721239031346));
#554=CARTESIAN_POINT('Origin',(0.,5.,1.1));
#555=CARTESIAN_POINT('Origin',(0.,2.2533692341845,-2.15));
#556=CARTESIAN_POINT('',(0.,2.2533692341845,-2.25));
#557=CARTESIAN_POINT('',(0.,2.3299736784964,-2.21427876096865));
#558=CARTESIAN_POINT('Origin',(0.,-2.3,-2.25));
#559=CARTESIAN_POINT('',(0.,-2.2533692341845,-2.25));
#560=CARTESIAN_POINT('',(-2.067,-2.53134493383758E-16,-2.25));
#561=CARTESIAN_POINT('Origin',(0.,0.,-2.25));
#562=CARTESIAN_POINT('Origin',(0.,-2.2533692341845,-2.15));
#563=CARTESIAN_POINT('Origin',(0.,0.,-12.932226450689));
#564=CARTESIAN_POINT('',(-2.067,-2.53134493383758E-16,2.25));
#565=CARTESIAN_POINT('Origin',(0.,0.,2.25));
#566=CARTESIAN_POINT('',(-2.067,-2.53134493383758E-16,-12.932226450689));
#567=CARTESIAN_POINT('Origin',(0.,2.3,-2.25));
#568=CARTESIAN_POINT('Origin',(0.,-2.925,1.1));
#569=CARTESIAN_POINT('Origin',(0.,2.925,2.25));
#570=UNCERTAINTY_MEASURE_WITH_UNIT(LENGTH_MEASURE(0.01),#574,
'DISTANCE_ACCURACY_VALUE',
'Maximum model space distance between geometric entities at asserted c
onnectivities');
#571=UNCERTAINTY_MEASURE_WITH_UNIT(LENGTH_MEASURE(0.01),#574,
'DISTANCE_ACCURACY_VALUE',
'Maximum model space distance between geometric entities at asserted c
onnectivities');
#572=(
GEOMETRIC_REPRESENTATION_CONTEXT(3)
GLOBAL_UNCERTAINTY_ASSIGNED_CONTEXT((#570))
GLOBAL_UNIT_ASSIGNED_CONTEXT((#574,#576,#577))
REPRESENTATION_CONTEXT('','3D')
);
#573=(
GEOMETRIC_REPRESENTATION_CONTEXT(3)
GLOBAL_UNCERTAINTY_ASSIGNED_CONTEXT((#571))
GLOBAL_UNIT_ASSIGNED_CONTEXT((#574,#576,#577))
REPRESENTATION_CONTEXT('','3D')
);
#574=(
LENGTH_UNIT()
NAMED_UNIT(*)
SI_UNIT(.MILLI.,.METRE.)
);
#575=(
LENGTH_UNIT()
NAMED_UNIT(*)
SI_UNIT(.CENTI.,.METRE.)
);
#576=(
NAMED_UNIT(*)
PLANE_ANGLE_UNIT()
SI_UNIT($,.RADIAN.)
);
#577=(
NAMED_UNIT(*)
SI_UNIT($,.STERADIAN.)
SOLID_ANGLE_UNIT()
);
#578=SHAPE_DEFINITION_REPRESENTATION(#579,#580);
#579=PRODUCT_DEFINITION_SHAPE('',$,#582);
#580=SHAPE_REPRESENTATION('',(#350),#572);
#581=PRODUCT_DEFINITION_CONTEXT('part definition',#586,'design');
#582=PRODUCT_DEFINITION('D SQUARE T-NUT (M5.SQ.T.NUT)',
'D SQUARE T-NUT (M5.SQ.T.NUT)',#583,#581);
#583=PRODUCT_DEFINITION_FORMATION('',$,#588);
#584=PRODUCT_RELATED_PRODUCT_CATEGORY('D SQUARE T-NUT (M5.SQ.T.NUT)',
'D SQUARE T-NUT (M5.SQ.T.NUT)',(#588));
#585=APPLICATION_PROTOCOL_DEFINITION('international standard',
'automotive_design',2009,#586);
#586=APPLICATION_CONTEXT(
'Core Data for Automotive Mechanical Design Process');
#587=PRODUCT_CONTEXT('part definition',#586,'mechanical');
#588=PRODUCT('D SQUARE T-NUT (M5.SQ.T.NUT)',
'D SQUARE T-NUT (M5.SQ.T.NUT)',$,(#587));
#589=PRESENTATION_STYLE_ASSIGNMENT((#590));
#590=SURFACE_STYLE_USAGE(.BOTH.,#593);
#591=SURFACE_STYLE_RENDERING_WITH_PROPERTIES($,#597,(#592));
#592=SURFACE_STYLE_TRANSPARENT(0.);
#593=SURFACE_SIDE_STYLE('',(#594,#591));
#594=SURFACE_STYLE_FILL_AREA(#595);
#595=FILL_AREA_STYLE('',(#596));
#596=FILL_AREA_STYLE_COLOUR('',#597);
#597=COLOUR_RGB('',0.87843137254902,0.874509803921569,0.858823529411765);
ENDSEC;
END-ISO-10303-21;
