ISO-10303-21;
HEADER;
/* Generated by software containing ST-Developer
 * from STEP Tools, Inc. (www.steptools.com) 
 */

FILE_DESCRIPTION(
/* description */ (''),
/* implementation_level */ '2;1');

FILE_NAME(
/* name */ 'DOUBLE TEE NUT (T1.5.10.36.8).stp',
/* time_stamp */ '2023-03-01T15:17:48+02:00',
/* author */ ('arnold.brand'),
/* organization */ (''),
/* preprocessor_version */ 'ST-DEVELOPER v19.2',
/* originating_system */ 'Autodesk Inventor 2023',
/* authorisation */ '');

FILE_SCHEMA (('AUTOMOTIVE_DESIGN { 1 0 10303 214 3 1 1 }'));
ENDSEC;

DATA;
#10=MECHANICAL_DESIGN_GEOMETRIC_PRESENTATION_REPRESENTATION('',(#13),#500);
#11=SHAPE_REPRESENTATION_RELATIONSHIP('SRR','None',#507,#12);
#12=ADVANCED_BREP_SHAPE_REPRESENTATION('',(#14),#499);
#13=STYLED_ITEM('',(#516),#14);
#14=MANIFOLD_SOLID_BREP('Solid3',#279);
#15=FACE_BOUND('',#48,.T.);
#16=FACE_BOUND('',#49,.T.);
#17=FACE_BOUND('',#59,.T.);
#18=FACE_BOUND('',#62,.T.);
#19=FACE_BOUND('',#65,.T.);
#20=FACE_BOUND('',#66,.T.);
#21=PLANE('',#305);
#22=PLANE('',#306);
#23=PLANE('',#314);
#24=PLANE('',#317);
#25=PLANE('',#327);
#26=PLANE('',#331);
#27=PLANE('',#332);
#28=PLANE('',#333);
#29=FACE_OUTER_BOUND('',#45,.T.);
#30=FACE_OUTER_BOUND('',#46,.T.);
#31=FACE_OUTER_BOUND('',#47,.T.);
#32=FACE_OUTER_BOUND('',#50,.T.);
#33=FACE_OUTER_BOUND('',#51,.T.);
#34=FACE_OUTER_BOUND('',#52,.T.);
#35=FACE_OUTER_BOUND('',#53,.T.);
#36=FACE_OUTER_BOUND('',#54,.T.);
#37=FACE_OUTER_BOUND('',#55,.T.);
#38=FACE_OUTER_BOUND('',#56,.T.);
#39=FACE_OUTER_BOUND('',#57,.T.);
#40=FACE_OUTER_BOUND('',#58,.T.);
#41=FACE_OUTER_BOUND('',#60,.T.);
#42=FACE_OUTER_BOUND('',#61,.T.);
#43=FACE_OUTER_BOUND('',#63,.T.);
#44=FACE_OUTER_BOUND('',#64,.T.);
#45=EDGE_LOOP('',(#183,#184,#185,#186));
#46=EDGE_LOOP('',(#187,#188,#189,#190));
#47=EDGE_LOOP('',(#191,#192,#193,#194,#195,#196,#197,#198));
#48=EDGE_LOOP('',(#199));
#49=EDGE_LOOP('',(#200));
#50=EDGE_LOOP('',(#201,#202,#203,#204));
#51=EDGE_LOOP('',(#205,#206,#207,#208));
#52=EDGE_LOOP('',(#209,#210,#211,#212));
#53=EDGE_LOOP('',(#213,#214,#215,#216));
#54=EDGE_LOOP('',(#217,#218,#219,#220));
#55=EDGE_LOOP('',(#221,#222,#223,#224));
#56=EDGE_LOOP('',(#225,#226,#227,#228));
#57=EDGE_LOOP('',(#229,#230,#231,#232));
#58=EDGE_LOOP('',(#233));
#59=EDGE_LOOP('',(#234));
#60=EDGE_LOOP('',(#235,#236,#237,#238));
#61=EDGE_LOOP('',(#239));
#62=EDGE_LOOP('',(#240));
#63=EDGE_LOOP('',(#241,#242,#243,#244));
#64=EDGE_LOOP('',(#245,#246,#247,#248,#249,#250,#251,#252));
#65=EDGE_LOOP('',(#253));
#66=EDGE_LOOP('',(#254));
#67=LINE('',#426,#87);
#68=LINE('',#429,#88);
#69=LINE('',#432,#89);
#70=LINE('',#434,#90);
#71=LINE('',#435,#91);
#72=LINE('',#438,#92);
#73=LINE('',#442,#93);
#74=LINE('',#446,#94);
#75=LINE('',#455,#95);
#76=LINE('',#458,#96);
#77=LINE('',#459,#97);
#78=LINE('',#463,#98);
#79=LINE('',#466,#99);
#80=LINE('',#467,#100);
#81=LINE('',#471,#101);
#82=LINE('',#475,#102);
#83=LINE('',#479,#103);
#84=LINE('',#484,#104);
#85=LINE('',#491,#105);
#86=LINE('',#495,#106);
#87=VECTOR('',#340,10.);
#88=VECTOR('',#343,10.);
#89=VECTOR('',#346,10.);
#90=VECTOR('',#347,10.);
#91=VECTOR('',#348,10.);
#92=VECTOR('',#351,10.);
#93=VECTOR('',#354,10.);
#94=VECTOR('',#357,10.);
#95=VECTOR('',#368,10.);
#96=VECTOR('',#371,10.);
#97=VECTOR('',#372,10.);
#98=VECTOR('',#377,10.);
#99=VECTOR('',#380,10.);
#100=VECTOR('',#381,10.);
#101=VECTOR('',#386,10.);
#102=VECTOR('',#391,2.067);
#103=VECTOR('',#396,2.067);
#104=VECTOR('',#401,2.8);
#105=VECTOR('',#410,2.8);
#106=VECTOR('',#417,10.);
#107=CIRCLE('',#303,1.);
#108=CIRCLE('',#304,1.);
#109=CIRCLE('',#307,1.);
#110=CIRCLE('',#308,1.);
#111=CIRCLE('',#309,1.);
#112=CIRCLE('',#310,2.067);
#113=CIRCLE('',#311,2.067);
#114=CIRCLE('',#313,1.);
#115=CIRCLE('',#316,1.);
#116=CIRCLE('',#319,1.);
#117=CIRCLE('',#321,2.067);
#118=CIRCLE('',#323,2.067);
#119=CIRCLE('',#325,2.8);
#120=CIRCLE('',#326,2.8);
#121=CIRCLE('',#329,2.8);
#122=CIRCLE('',#330,2.8);
#123=VERTEX_POINT('',#422);
#124=VERTEX_POINT('',#423);
#125=VERTEX_POINT('',#425);
#126=VERTEX_POINT('',#427);
#127=VERTEX_POINT('',#431);
#128=VERTEX_POINT('',#433);
#129=VERTEX_POINT('',#437);
#130=VERTEX_POINT('',#439);
#131=VERTEX_POINT('',#441);
#132=VERTEX_POINT('',#443);
#133=VERTEX_POINT('',#445);
#134=VERTEX_POINT('',#448);
#135=VERTEX_POINT('',#450);
#136=VERTEX_POINT('',#453);
#137=VERTEX_POINT('',#457);
#138=VERTEX_POINT('',#461);
#139=VERTEX_POINT('',#465);
#140=VERTEX_POINT('',#469);
#141=VERTEX_POINT('',#473);
#142=VERTEX_POINT('',#477);
#143=VERTEX_POINT('',#481);
#144=VERTEX_POINT('',#483);
#145=VERTEX_POINT('',#488);
#146=VERTEX_POINT('',#490);
#147=EDGE_CURVE('',#123,#124,#107,.T.);
#148=EDGE_CURVE('',#124,#125,#67,.T.);
#149=EDGE_CURVE('',#125,#126,#108,.T.);
#150=EDGE_CURVE('',#126,#123,#68,.T.);
#151=EDGE_CURVE('',#126,#127,#69,.T.);
#152=EDGE_CURVE('',#128,#127,#70,.T.);
#153=EDGE_CURVE('',#123,#128,#71,.T.);
#154=EDGE_CURVE('',#129,#125,#72,.T.);
#155=EDGE_CURVE('',#130,#129,#109,.T.);
#156=EDGE_CURVE('',#131,#130,#73,.T.);
#157=EDGE_CURVE('',#132,#131,#110,.T.);
#158=EDGE_CURVE('',#133,#132,#74,.T.);
#159=EDGE_CURVE('',#127,#133,#111,.T.);
#160=EDGE_CURVE('',#134,#134,#112,.T.);
#161=EDGE_CURVE('',#135,#135,#113,.T.);
#162=EDGE_CURVE('',#136,#128,#114,.T.);
#163=EDGE_CURVE('',#133,#136,#75,.T.);
#164=EDGE_CURVE('',#137,#132,#76,.T.);
#165=EDGE_CURVE('',#136,#137,#77,.T.);
#166=EDGE_CURVE('',#138,#137,#115,.T.);
#167=EDGE_CURVE('',#131,#138,#78,.T.);
#168=EDGE_CURVE('',#139,#130,#79,.T.);
#169=EDGE_CURVE('',#138,#139,#80,.T.);
#170=EDGE_CURVE('',#140,#139,#116,.T.);
#171=EDGE_CURVE('',#129,#140,#81,.T.);
#172=EDGE_CURVE('',#141,#141,#117,.T.);
#173=EDGE_CURVE('',#141,#134,#82,.T.);
#174=EDGE_CURVE('',#142,#142,#118,.T.);
#175=EDGE_CURVE('',#142,#135,#83,.T.);
#176=EDGE_CURVE('',#143,#143,#119,.T.);
#177=EDGE_CURVE('',#143,#144,#84,.T.);
#178=EDGE_CURVE('',#144,#144,#120,.T.);
#179=EDGE_CURVE('',#145,#145,#121,.T.);
#180=EDGE_CURVE('',#145,#146,#85,.T.);
#181=EDGE_CURVE('',#146,#146,#122,.T.);
#182=EDGE_CURVE('',#140,#124,#86,.T.);
#183=ORIENTED_EDGE('',*,*,#147,.T.);
#184=ORIENTED_EDGE('',*,*,#148,.T.);
#185=ORIENTED_EDGE('',*,*,#149,.T.);
#186=ORIENTED_EDGE('',*,*,#150,.T.);
#187=ORIENTED_EDGE('',*,*,#150,.F.);
#188=ORIENTED_EDGE('',*,*,#151,.T.);
#189=ORIENTED_EDGE('',*,*,#152,.F.);
#190=ORIENTED_EDGE('',*,*,#153,.F.);
#191=ORIENTED_EDGE('',*,*,#149,.F.);
#192=ORIENTED_EDGE('',*,*,#154,.F.);
#193=ORIENTED_EDGE('',*,*,#155,.F.);
#194=ORIENTED_EDGE('',*,*,#156,.F.);
#195=ORIENTED_EDGE('',*,*,#157,.F.);
#196=ORIENTED_EDGE('',*,*,#158,.F.);
#197=ORIENTED_EDGE('',*,*,#159,.F.);
#198=ORIENTED_EDGE('',*,*,#151,.F.);
#199=ORIENTED_EDGE('',*,*,#160,.T.);
#200=ORIENTED_EDGE('',*,*,#161,.T.);
#201=ORIENTED_EDGE('',*,*,#162,.T.);
#202=ORIENTED_EDGE('',*,*,#152,.T.);
#203=ORIENTED_EDGE('',*,*,#159,.T.);
#204=ORIENTED_EDGE('',*,*,#163,.T.);
#205=ORIENTED_EDGE('',*,*,#163,.F.);
#206=ORIENTED_EDGE('',*,*,#158,.T.);
#207=ORIENTED_EDGE('',*,*,#164,.F.);
#208=ORIENTED_EDGE('',*,*,#165,.F.);
#209=ORIENTED_EDGE('',*,*,#166,.T.);
#210=ORIENTED_EDGE('',*,*,#164,.T.);
#211=ORIENTED_EDGE('',*,*,#157,.T.);
#212=ORIENTED_EDGE('',*,*,#167,.T.);
#213=ORIENTED_EDGE('',*,*,#167,.F.);
#214=ORIENTED_EDGE('',*,*,#156,.T.);
#215=ORIENTED_EDGE('',*,*,#168,.F.);
#216=ORIENTED_EDGE('',*,*,#169,.F.);
#217=ORIENTED_EDGE('',*,*,#170,.T.);
#218=ORIENTED_EDGE('',*,*,#168,.T.);
#219=ORIENTED_EDGE('',*,*,#155,.T.);
#220=ORIENTED_EDGE('',*,*,#171,.T.);
#221=ORIENTED_EDGE('',*,*,#172,.F.);
#222=ORIENTED_EDGE('',*,*,#173,.T.);
#223=ORIENTED_EDGE('',*,*,#160,.F.);
#224=ORIENTED_EDGE('',*,*,#173,.F.);
#225=ORIENTED_EDGE('',*,*,#174,.F.);
#226=ORIENTED_EDGE('',*,*,#175,.T.);
#227=ORIENTED_EDGE('',*,*,#161,.F.);
#228=ORIENTED_EDGE('',*,*,#175,.F.);
#229=ORIENTED_EDGE('',*,*,#176,.F.);
#230=ORIENTED_EDGE('',*,*,#177,.T.);
#231=ORIENTED_EDGE('',*,*,#178,.F.);
#232=ORIENTED_EDGE('',*,*,#177,.F.);
#233=ORIENTED_EDGE('',*,*,#176,.T.);
#234=ORIENTED_EDGE('',*,*,#174,.T.);
#235=ORIENTED_EDGE('',*,*,#179,.F.);
#236=ORIENTED_EDGE('',*,*,#180,.T.);
#237=ORIENTED_EDGE('',*,*,#181,.F.);
#238=ORIENTED_EDGE('',*,*,#180,.F.);
#239=ORIENTED_EDGE('',*,*,#179,.T.);
#240=ORIENTED_EDGE('',*,*,#172,.T.);
#241=ORIENTED_EDGE('',*,*,#148,.F.);
#242=ORIENTED_EDGE('',*,*,#182,.F.);
#243=ORIENTED_EDGE('',*,*,#171,.F.);
#244=ORIENTED_EDGE('',*,*,#154,.T.);
#245=ORIENTED_EDGE('',*,*,#147,.F.);
#246=ORIENTED_EDGE('',*,*,#153,.T.);
#247=ORIENTED_EDGE('',*,*,#162,.F.);
#248=ORIENTED_EDGE('',*,*,#165,.T.);
#249=ORIENTED_EDGE('',*,*,#166,.F.);
#250=ORIENTED_EDGE('',*,*,#169,.T.);
#251=ORIENTED_EDGE('',*,*,#170,.F.);
#252=ORIENTED_EDGE('',*,*,#182,.T.);
#253=ORIENTED_EDGE('',*,*,#178,.T.);
#254=ORIENTED_EDGE('',*,*,#181,.T.);
#255=CYLINDRICAL_SURFACE('',#302,1.);
#256=CYLINDRICAL_SURFACE('',#312,1.);
#257=CYLINDRICAL_SURFACE('',#315,1.);
#258=CYLINDRICAL_SURFACE('',#318,1.);
#259=CYLINDRICAL_SURFACE('',#320,2.067);
#260=CYLINDRICAL_SURFACE('',#322,2.067);
#261=CYLINDRICAL_SURFACE('',#324,2.8);
#262=CYLINDRICAL_SURFACE('',#328,2.8);
#263=ADVANCED_FACE('',(#29),#255,.T.);
#264=ADVANCED_FACE('',(#30),#21,.T.);
#265=ADVANCED_FACE('',(#31,#15,#16),#22,.F.);
#266=ADVANCED_FACE('',(#32),#256,.T.);
#267=ADVANCED_FACE('',(#33),#23,.T.);
#268=ADVANCED_FACE('',(#34),#257,.T.);
#269=ADVANCED_FACE('',(#35),#24,.T.);
#270=ADVANCED_FACE('',(#36),#258,.T.);
#271=ADVANCED_FACE('',(#37),#259,.F.);
#272=ADVANCED_FACE('',(#38),#260,.F.);
#273=ADVANCED_FACE('',(#39),#261,.T.);
#274=ADVANCED_FACE('',(#40,#17),#25,.T.);
#275=ADVANCED_FACE('',(#41),#262,.T.);
#276=ADVANCED_FACE('',(#42,#18),#26,.T.);
#277=ADVANCED_FACE('',(#43),#27,.T.);
#278=ADVANCED_FACE('',(#44,#19,#20),#28,.T.);
#279=CLOSED_SHELL('',(#263,#264,#265,#266,#267,#268,#269,#270,#271,#272,
#273,#274,#275,#276,#277,#278));
#280=DERIVED_UNIT_ELEMENT(#283,1.);
#281=DERIVED_UNIT_ELEMENT(#502,-3.);
#282=DIMENSIONAL_EXPONENTS(0.,1.,0.,0.,0.,0.,0.);
#283=(
CONVERSION_BASED_UNIT('gram',#285)
MASS_UNIT()
NAMED_UNIT(#282)
);
#284=(
MASS_UNIT()
NAMED_UNIT(*)
SI_UNIT(.KILO.,.GRAM.)
);
#285=MASS_MEASURE_WITH_UNIT(MASS_MEASURE(0.001),#284);
#286=DERIVED_UNIT((#280,#281));
#287=MEASURE_REPRESENTATION_ITEM('density measure',
POSITIVE_RATIO_MEASURE(7.85),#286);
#288=PROPERTY_DEFINITION_REPRESENTATION(#293,#290);
#289=PROPERTY_DEFINITION_REPRESENTATION(#294,#291);
#290=REPRESENTATION('material name',(#292),#499);
#291=REPRESENTATION('density',(#287),#499);
#292=DESCRIPTIVE_REPRESENTATION_ITEM('Steel, Mild','Steel, Mild');
#293=PROPERTY_DEFINITION('material property','material name',#509);
#294=PROPERTY_DEFINITION('material property','density of part',#509);
#295=DATE_TIME_ROLE('creation_date');
#296=APPLIED_DATE_AND_TIME_ASSIGNMENT(#297,#295,(#509));
#297=DATE_AND_TIME(#298,#299);
#298=CALENDAR_DATE(2023,27,2);
#299=LOCAL_TIME(0,0,0.,#300);
#300=COORDINATED_UNIVERSAL_TIME_OFFSET(0,0,.BEHIND.);
#301=AXIS2_PLACEMENT_3D('',#420,#334,#335);
#302=AXIS2_PLACEMENT_3D('',#421,#336,#337);
#303=AXIS2_PLACEMENT_3D('',#424,#338,#339);
#304=AXIS2_PLACEMENT_3D('',#428,#341,#342);
#305=AXIS2_PLACEMENT_3D('',#430,#344,#345);
#306=AXIS2_PLACEMENT_3D('',#436,#349,#350);
#307=AXIS2_PLACEMENT_3D('',#440,#352,#353);
#308=AXIS2_PLACEMENT_3D('',#444,#355,#356);
#309=AXIS2_PLACEMENT_3D('',#447,#358,#359);
#310=AXIS2_PLACEMENT_3D('',#449,#360,#361);
#311=AXIS2_PLACEMENT_3D('',#451,#362,#363);
#312=AXIS2_PLACEMENT_3D('',#452,#364,#365);
#313=AXIS2_PLACEMENT_3D('',#454,#366,#367);
#314=AXIS2_PLACEMENT_3D('',#456,#369,#370);
#315=AXIS2_PLACEMENT_3D('',#460,#373,#374);
#316=AXIS2_PLACEMENT_3D('',#462,#375,#376);
#317=AXIS2_PLACEMENT_3D('',#464,#378,#379);
#318=AXIS2_PLACEMENT_3D('',#468,#382,#383);
#319=AXIS2_PLACEMENT_3D('',#470,#384,#385);
#320=AXIS2_PLACEMENT_3D('',#472,#387,#388);
#321=AXIS2_PLACEMENT_3D('',#474,#389,#390);
#322=AXIS2_PLACEMENT_3D('',#476,#392,#393);
#323=AXIS2_PLACEMENT_3D('',#478,#394,#395);
#324=AXIS2_PLACEMENT_3D('',#480,#397,#398);
#325=AXIS2_PLACEMENT_3D('',#482,#399,#400);
#326=AXIS2_PLACEMENT_3D('',#485,#402,#403);
#327=AXIS2_PLACEMENT_3D('',#486,#404,#405);
#328=AXIS2_PLACEMENT_3D('',#487,#406,#407);
#329=AXIS2_PLACEMENT_3D('',#489,#408,#409);
#330=AXIS2_PLACEMENT_3D('',#492,#411,#412);
#331=AXIS2_PLACEMENT_3D('',#493,#413,#414);
#332=AXIS2_PLACEMENT_3D('',#494,#415,#416);
#333=AXIS2_PLACEMENT_3D('',#496,#418,#419);
#334=DIRECTION('axis',(0.,0.,1.));
#335=DIRECTION('refdir',(1.,0.,0.));
#336=DIRECTION('center_axis',(0.,0.,1.));
#337=DIRECTION('ref_axis',(0.707106781186547,0.707106781186548,0.));
#338=DIRECTION('center_axis',(0.,0.,-1.));
#339=DIRECTION('ref_axis',(0.707106781186547,0.707106781186548,0.));
#340=DIRECTION('',(0.,0.,-1.));
#341=DIRECTION('center_axis',(0.,0.,1.));
#342=DIRECTION('ref_axis',(0.707106781186547,0.707106781186548,0.));
#343=DIRECTION('',(0.,0.,1.));
#344=DIRECTION('center_axis',(0.,1.,0.));
#345=DIRECTION('ref_axis',(-1.,0.,0.));
#346=DIRECTION('',(-1.,0.,0.));
#347=DIRECTION('',(0.,0.,-1.));
#348=DIRECTION('',(-1.,0.,0.));
#349=DIRECTION('center_axis',(0.,0.,1.));
#350=DIRECTION('ref_axis',(1.,0.,0.));
#351=DIRECTION('',(0.,1.,0.));
#352=DIRECTION('center_axis',(0.,0.,1.));
#353=DIRECTION('ref_axis',(0.707106781186547,-0.707106781186548,0.));
#354=DIRECTION('',(1.,0.,0.));
#355=DIRECTION('center_axis',(0.,0.,1.));
#356=DIRECTION('ref_axis',(-0.707106781186547,-0.707106781186548,0.));
#357=DIRECTION('',(0.,-1.,0.));
#358=DIRECTION('center_axis',(0.,0.,1.));
#359=DIRECTION('ref_axis',(-0.707106781186547,0.707106781186548,0.));
#360=DIRECTION('center_axis',(0.,0.,1.));
#361=DIRECTION('ref_axis',(1.,0.,0.));
#362=DIRECTION('center_axis',(0.,0.,1.));
#363=DIRECTION('ref_axis',(1.,0.,0.));
#364=DIRECTION('center_axis',(0.,0.,1.));
#365=DIRECTION('ref_axis',(-0.707106781186547,0.707106781186548,0.));
#366=DIRECTION('center_axis',(0.,0.,-1.));
#367=DIRECTION('ref_axis',(-0.707106781186547,0.707106781186548,0.));
#368=DIRECTION('',(0.,0.,1.));
#369=DIRECTION('center_axis',(-1.,0.,0.));
#370=DIRECTION('ref_axis',(0.,-1.,0.));
#371=DIRECTION('',(0.,0.,-1.));
#372=DIRECTION('',(0.,-1.,0.));
#373=DIRECTION('center_axis',(0.,0.,1.));
#374=DIRECTION('ref_axis',(-0.707106781186547,-0.707106781186548,0.));
#375=DIRECTION('center_axis',(0.,0.,-1.));
#376=DIRECTION('ref_axis',(-0.707106781186547,-0.707106781186548,0.));
#377=DIRECTION('',(0.,0.,1.));
#378=DIRECTION('center_axis',(0.,-1.,0.));
#379=DIRECTION('ref_axis',(1.,0.,0.));
#380=DIRECTION('',(0.,0.,-1.));
#381=DIRECTION('',(1.,0.,0.));
#382=DIRECTION('center_axis',(0.,0.,1.));
#383=DIRECTION('ref_axis',(0.707106781186547,-0.707106781186548,0.));
#384=DIRECTION('center_axis',(0.,0.,-1.));
#385=DIRECTION('ref_axis',(0.707106781186547,-0.707106781186548,0.));
#386=DIRECTION('',(0.,0.,1.));
#387=DIRECTION('center_axis',(0.,0.,1.));
#388=DIRECTION('ref_axis',(1.,0.,0.));
#389=DIRECTION('center_axis',(0.,0.,-1.));
#390=DIRECTION('ref_axis',(1.,0.,0.));
#391=DIRECTION('',(0.,0.,-1.));
#392=DIRECTION('center_axis',(0.,0.,1.));
#393=DIRECTION('ref_axis',(1.,0.,0.));
#394=DIRECTION('center_axis',(0.,0.,-1.));
#395=DIRECTION('ref_axis',(1.,0.,0.));
#396=DIRECTION('',(0.,0.,-1.));
#397=DIRECTION('center_axis',(0.,0.,1.));
#398=DIRECTION('ref_axis',(1.,0.,0.));
#399=DIRECTION('center_axis',(0.,0.,1.));
#400=DIRECTION('ref_axis',(1.,0.,0.));
#401=DIRECTION('',(0.,0.,-1.));
#402=DIRECTION('center_axis',(0.,0.,-1.));
#403=DIRECTION('ref_axis',(1.,0.,0.));
#404=DIRECTION('center_axis',(0.,0.,1.));
#405=DIRECTION('ref_axis',(1.,0.,0.));
#406=DIRECTION('center_axis',(0.,0.,1.));
#407=DIRECTION('ref_axis',(1.,0.,0.));
#408=DIRECTION('center_axis',(0.,0.,1.));
#409=DIRECTION('ref_axis',(1.,0.,0.));
#410=DIRECTION('',(0.,0.,-1.));
#411=DIRECTION('center_axis',(0.,0.,-1.));
#412=DIRECTION('ref_axis',(1.,0.,0.));
#413=DIRECTION('center_axis',(0.,0.,1.));
#414=DIRECTION('ref_axis',(1.,0.,0.));
#415=DIRECTION('center_axis',(1.,0.,0.));
#416=DIRECTION('ref_axis',(0.,1.,0.));
#417=DIRECTION('',(0.,1.,0.));
#418=DIRECTION('center_axis',(0.,0.,1.));
#419=DIRECTION('ref_axis',(1.,0.,0.));
#420=CARTESIAN_POINT('',(0.,0.,0.));
#421=CARTESIAN_POINT('Origin',(4.,17.5,0.));
#422=CARTESIAN_POINT('',(4.,18.5,1.6));
#423=CARTESIAN_POINT('',(5.,17.5,1.6));
#424=CARTESIAN_POINT('Origin',(4.,17.5,1.6));
#425=CARTESIAN_POINT('',(5.,17.5,0.));
#426=CARTESIAN_POINT('',(5.,17.5,0.));
#427=CARTESIAN_POINT('',(4.,18.5,0.));
#428=CARTESIAN_POINT('Origin',(4.,17.5,0.));
#429=CARTESIAN_POINT('',(4.,18.5,0.));
#430=CARTESIAN_POINT('Origin',(5.,18.5,0.));
#431=CARTESIAN_POINT('',(-4.,18.5,0.));
#432=CARTESIAN_POINT('',(5.,18.5,0.));
#433=CARTESIAN_POINT('',(-4.,18.5,1.6));
#434=CARTESIAN_POINT('',(-4.,18.5,0.));
#435=CARTESIAN_POINT('',(5.,18.5,1.6));
#436=CARTESIAN_POINT('Origin',(0.,0.,0.));
#437=CARTESIAN_POINT('',(5.,-17.5,0.));
#438=CARTESIAN_POINT('',(5.,-18.5,0.));
#439=CARTESIAN_POINT('',(4.,-18.5,0.));
#440=CARTESIAN_POINT('Origin',(4.,-17.5,0.));
#441=CARTESIAN_POINT('',(-4.,-18.5,0.));
#442=CARTESIAN_POINT('',(-5.,-18.5,0.));
#443=CARTESIAN_POINT('',(-5.,-17.5,0.));
#444=CARTESIAN_POINT('Origin',(-4.,-17.5,0.));
#445=CARTESIAN_POINT('',(-5.,17.5,0.));
#446=CARTESIAN_POINT('',(-5.,18.5,0.));
#447=CARTESIAN_POINT('Origin',(-4.,17.5,0.));
#448=CARTESIAN_POINT('',(-2.067,-10.,0.));
#449=CARTESIAN_POINT('Origin',(0.,-10.,0.));
#450=CARTESIAN_POINT('',(-2.067,10.,0.));
#451=CARTESIAN_POINT('Origin',(0.,10.,0.));
#452=CARTESIAN_POINT('Origin',(-4.,17.5,0.));
#453=CARTESIAN_POINT('',(-5.,17.5,1.6));
#454=CARTESIAN_POINT('Origin',(-4.,17.5,1.6));
#455=CARTESIAN_POINT('',(-5.,17.5,0.));
#456=CARTESIAN_POINT('Origin',(-5.,18.5,0.));
#457=CARTESIAN_POINT('',(-5.,-17.5,1.6));
#458=CARTESIAN_POINT('',(-5.,-17.5,0.));
#459=CARTESIAN_POINT('',(-5.,18.5,1.6));
#460=CARTESIAN_POINT('Origin',(-4.,-17.5,0.));
#461=CARTESIAN_POINT('',(-4.,-18.5,1.6));
#462=CARTESIAN_POINT('Origin',(-4.,-17.5,1.6));
#463=CARTESIAN_POINT('',(-4.,-18.5,0.));
#464=CARTESIAN_POINT('Origin',(-5.,-18.5,0.));
#465=CARTESIAN_POINT('',(4.,-18.5,1.6));
#466=CARTESIAN_POINT('',(4.,-18.5,0.));
#467=CARTESIAN_POINT('',(-5.,-18.5,1.6));
#468=CARTESIAN_POINT('Origin',(4.,-17.5,0.));
#469=CARTESIAN_POINT('',(5.,-17.5,1.6));
#470=CARTESIAN_POINT('Origin',(4.,-17.5,1.6));
#471=CARTESIAN_POINT('',(5.,-17.5,0.));
#472=CARTESIAN_POINT('Origin',(0.,-10.,-34.8962335820012));
#473=CARTESIAN_POINT('',(-2.067,-10.,3.6));
#474=CARTESIAN_POINT('Origin',(0.,-10.,3.6));
#475=CARTESIAN_POINT('',(-2.067,-10.,-34.8962335820012));
#476=CARTESIAN_POINT('Origin',(0.,10.,-34.8962335820012));
#477=CARTESIAN_POINT('',(-2.067,10.,3.6));
#478=CARTESIAN_POINT('Origin',(0.,10.,3.6));
#479=CARTESIAN_POINT('',(-2.067,10.,-34.8962335820012));
#480=CARTESIAN_POINT('Origin',(0.,10.,1.6));
#481=CARTESIAN_POINT('',(-2.8,10.,3.6));
#482=CARTESIAN_POINT('Origin',(0.,10.,3.6));
#483=CARTESIAN_POINT('',(-2.8,10.,1.6));
#484=CARTESIAN_POINT('',(-2.8,10.,1.6));
#485=CARTESIAN_POINT('Origin',(0.,10.,1.6));
#486=CARTESIAN_POINT('Origin',(0.,10.,3.6));
#487=CARTESIAN_POINT('Origin',(0.,-10.,1.6));
#488=CARTESIAN_POINT('',(-2.8,-10.,3.6));
#489=CARTESIAN_POINT('Origin',(0.,-10.,3.6));
#490=CARTESIAN_POINT('',(-2.8,-10.,1.6));
#491=CARTESIAN_POINT('',(-2.8,-10.,1.6));
#492=CARTESIAN_POINT('Origin',(0.,-10.,1.6));
#493=CARTESIAN_POINT('Origin',(0.,-10.,3.6));
#494=CARTESIAN_POINT('Origin',(5.,-18.5,0.));
#495=CARTESIAN_POINT('',(5.,-18.5,1.6));
#496=CARTESIAN_POINT('Origin',(0.,0.,1.6));
#497=UNCERTAINTY_MEASURE_WITH_UNIT(LENGTH_MEASURE(0.01),#501,
'DISTANCE_ACCURACY_VALUE',
'Maximum model space distance between geometric entities at asserted c
onnectivities');
#498=UNCERTAINTY_MEASURE_WITH_UNIT(LENGTH_MEASURE(0.01),#501,
'DISTANCE_ACCURACY_VALUE',
'Maximum model space distance between geometric entities at asserted c
onnectivities');
#499=(
GEOMETRIC_REPRESENTATION_CONTEXT(3)
GLOBAL_UNCERTAINTY_ASSIGNED_CONTEXT((#497))
GLOBAL_UNIT_ASSIGNED_CONTEXT((#501,#503,#504))
REPRESENTATION_CONTEXT('','3D')
);
#500=(
GEOMETRIC_REPRESENTATION_CONTEXT(3)
GLOBAL_UNCERTAINTY_ASSIGNED_CONTEXT((#498))
GLOBAL_UNIT_ASSIGNED_CONTEXT((#501,#503,#504))
REPRESENTATION_CONTEXT('','3D')
);
#501=(
LENGTH_UNIT()
NAMED_UNIT(*)
SI_UNIT(.MILLI.,.METRE.)
);
#502=(
LENGTH_UNIT()
NAMED_UNIT(*)
SI_UNIT(.CENTI.,.METRE.)
);
#503=(
NAMED_UNIT(*)
PLANE_ANGLE_UNIT()
SI_UNIT($,.RADIAN.)
);
#504=(
NAMED_UNIT(*)
SI_UNIT($,.STERADIAN.)
SOLID_ANGLE_UNIT()
);
#505=SHAPE_DEFINITION_REPRESENTATION(#506,#507);
#506=PRODUCT_DEFINITION_SHAPE('',$,#509);
#507=SHAPE_REPRESENTATION('',(#301),#499);
#508=PRODUCT_DEFINITION_CONTEXT('part definition',#513,'design');
#509=PRODUCT_DEFINITION('DOUBLE TEE NUT (T1.5.10.36.8)',
'DOUBLE TEE NUT (T1.5.10.36.8)',#510,#508);
#510=PRODUCT_DEFINITION_FORMATION('',$,#515);
#511=PRODUCT_RELATED_PRODUCT_CATEGORY('DOUBLE TEE NUT (T1.5.10.36.8)',
'DOUBLE TEE NUT (T1.5.10.36.8)',(#515));
#512=APPLICATION_PROTOCOL_DEFINITION('international standard',
'automotive_design',2009,#513);
#513=APPLICATION_CONTEXT(
'Core Data for Automotive Mechanical Design Process');
#514=PRODUCT_CONTEXT('part definition',#513,'mechanical');
#515=PRODUCT('DOUBLE TEE NUT (T1.5.10.36.8)',
'DOUBLE TEE NUT (T1.5.10.36.8)',$,(#514));
#516=PRESENTATION_STYLE_ASSIGNMENT((#517));
#517=SURFACE_STYLE_USAGE(.BOTH.,#520);
#518=SURFACE_STYLE_RENDERING_WITH_PROPERTIES($,#524,(#519));
#519=SURFACE_STYLE_TRANSPARENT(0.);
#520=SURFACE_SIDE_STYLE('',(#521,#518));
#521=SURFACE_STYLE_FILL_AREA(#522);
#522=FILL_AREA_STYLE('',(#523));
#523=FILL_AREA_STYLE_COLOUR('',#524);
#524=COLOUR_RGB('',0.87843137254902,0.874509803921569,0.858823529411765);
ENDSEC;
END-ISO-10303-21;
