ISO-10303-21;
HEADER;
/* Generated by software containing ST-Developer
 * from STEP Tools, Inc. (www.steptools.com) 
 */

FILE_DESCRIPTION(
/* description */ ('LOW PROFILE SCREW - BLACK'),
/* implementation_level */ '2;1');

FILE_NAME(
/* name */ 'LOW PROFILE SCREW M5 X 8 (M5.8).stp',
/* time_stamp */ '2023-03-01T15:14:44+02:00',
/* author */ ('arnold.brand'),
/* organization */ (''),
/* preprocessor_version */ 'ST-DEVELOPER v19.2',
/* originating_system */ 'Autodesk Inventor 2023',
/* authorisation */ '');

FILE_SCHEMA (('AUTOMOTIVE_DESIGN { 1 0 10303 214 3 1 1 }'));
ENDSEC;

DATA;
#10=MECHANICAL_DESIGN_GEOMETRIC_PRESENTATION_REPRESENTATION('',(#13),#473);
#11=SHAPE_REPRESENTATION_RELATIONSHIP('SRR','None',#480,#12);
#12=ADVANCED_BREP_SHAPE_REPRESENTATION('',(#14),#472);
#13=STYLED_ITEM('',(#489),#14);
#14=MANIFOLD_SOLID_BREP('Solid1',#259);
#15=(
BOUNDED_CURVE()
B_SPLINE_CURVE(2,(#430,#431,#432),.UNSPECIFIED.,.F.,.F.)
B_SPLINE_CURVE_WITH_KNOTS((3,3),(0.,0.175265420711688),.UNSPECIFIED.)
CURVE()
GEOMETRIC_REPRESENTATION_ITEM()
RATIONAL_B_SPLINE_CURVE((1.,1.15470053837926,1.))
REPRESENTATION_ITEM('')
);
#16=(
BOUNDED_CURVE()
B_SPLINE_CURVE(2,(#437,#438,#439),.UNSPECIFIED.,.F.,.F.)
B_SPLINE_CURVE_WITH_KNOTS((3,3),(0.,0.175265420711688),.UNSPECIFIED.)
CURVE()
GEOMETRIC_REPRESENTATION_ITEM()
RATIONAL_B_SPLINE_CURVE((1.,1.15470053837926,1.))
REPRESENTATION_ITEM('')
);
#17=(
BOUNDED_CURVE()
B_SPLINE_CURVE(2,(#443,#444,#445),.UNSPECIFIED.,.F.,.F.)
B_SPLINE_CURVE_WITH_KNOTS((3,3),(0.,0.175265420711688),.UNSPECIFIED.)
CURVE()
GEOMETRIC_REPRESENTATION_ITEM()
RATIONAL_B_SPLINE_CURVE((1.,1.15470053837925,1.))
REPRESENTATION_ITEM('')
);
#18=(
BOUNDED_CURVE()
B_SPLINE_CURVE(2,(#449,#450,#451),.UNSPECIFIED.,.F.,.F.)
B_SPLINE_CURVE_WITH_KNOTS((3,3),(0.,0.175265420711688),.UNSPECIFIED.)
CURVE()
GEOMETRIC_REPRESENTATION_ITEM()
RATIONAL_B_SPLINE_CURVE((1.,1.15470053837926,1.))
REPRESENTATION_ITEM('')
);
#19=(
BOUNDED_CURVE()
B_SPLINE_CURVE(2,(#455,#456,#457),.UNSPECIFIED.,.F.,.F.)
B_SPLINE_CURVE_WITH_KNOTS((3,3),(0.,0.0876327103558438),.UNSPECIFIED.)
CURVE()
GEOMETRIC_REPRESENTATION_ITEM()
RATIONAL_B_SPLINE_CURVE((1.,1.07735026918963,1.07735026918963))
REPRESENTATION_ITEM('')
);
#20=(
BOUNDED_CURVE()
B_SPLINE_CURVE(2,(#460,#461,#462),.UNSPECIFIED.,.F.,.F.)
B_SPLINE_CURVE_WITH_KNOTS((3,3),(0.0876327103558438,0.175265420711688),
 .UNSPECIFIED.)
CURVE()
GEOMETRIC_REPRESENTATION_ITEM()
RATIONAL_B_SPLINE_CURVE((1.07735026918963,1.07735026918963,1.))
REPRESENTATION_ITEM('')
);
#21=(
BOUNDED_CURVE()
B_SPLINE_CURVE(2,(#464,#465,#466),.UNSPECIFIED.,.F.,.F.)
B_SPLINE_CURVE_WITH_KNOTS((3,3),(0.,0.175265420711688),.UNSPECIFIED.)
CURVE()
GEOMETRIC_REPRESENTATION_ITEM()
RATIONAL_B_SPLINE_CURVE((1.,1.15470053837926,1.))
REPRESENTATION_ITEM('')
);
#22=CONICAL_SURFACE('',#292,2.2546175,0.785413445894403);
#23=CONICAL_SURFACE('',#308,0.866025403784439,1.0471975511966);
#24=FACE_BOUND('',#87,.T.);
#25=FACE_BOUND('',#92,.T.);
#26=PLANE('',#290);
#27=PLANE('',#294);
#28=PLANE('',#300);
#29=PLANE('',#302);
#30=PLANE('',#303);
#31=PLANE('',#304);
#32=PLANE('',#305);
#33=PLANE('',#306);
#34=PLANE('',#307);
#35=LINE('',#395,#51);
#36=LINE('',#402,#52);
#37=LINE('',#415,#53);
#38=LINE('',#417,#54);
#39=LINE('',#419,#55);
#40=LINE('',#421,#56);
#41=LINE('',#423,#57);
#42=LINE('',#424,#58);
#43=LINE('',#426,#59);
#44=LINE('',#433,#60);
#45=LINE('',#434,#61);
#46=LINE('',#440,#62);
#47=LINE('',#446,#63);
#48=LINE('',#452,#64);
#49=LINE('',#459,#65);
#50=LINE('',#469,#66);
#51=VECTOR('',#327,2.5);
#52=VECTOR('',#336,2.2546175);
#53=VECTOR('',#351,10.);
#54=VECTOR('',#352,10.);
#55=VECTOR('',#353,10.);
#56=VECTOR('',#354,10.);
#57=VECTOR('',#355,10.);
#58=VECTOR('',#356,10.);
#59=VECTOR('',#359,4.5);
#60=VECTOR('',#362,10.);
#61=VECTOR('',#363,10.);
#62=VECTOR('',#366,10.);
#63=VECTOR('',#369,10.);
#64=VECTOR('',#372,10.);
#65=VECTOR('',#375,10.);
#66=VECTOR('',#380,0.866025403784439);
#67=CYLINDRICAL_SURFACE('',#287,2.5);
#68=CYLINDRICAL_SURFACE('',#301,4.5);
#69=FACE_OUTER_BOUND('',#84,.T.);
#70=FACE_OUTER_BOUND('',#85,.T.);
#71=FACE_OUTER_BOUND('',#86,.T.);
#72=FACE_OUTER_BOUND('',#88,.T.);
#73=FACE_OUTER_BOUND('',#89,.T.);
#74=FACE_OUTER_BOUND('',#90,.T.);
#75=FACE_OUTER_BOUND('',#91,.T.);
#76=FACE_OUTER_BOUND('',#93,.T.);
#77=FACE_OUTER_BOUND('',#94,.T.);
#78=FACE_OUTER_BOUND('',#95,.T.);
#79=FACE_OUTER_BOUND('',#96,.T.);
#80=FACE_OUTER_BOUND('',#97,.T.);
#81=FACE_OUTER_BOUND('',#98,.T.);
#82=FACE_OUTER_BOUND('',#99,.T.);
#83=FACE_OUTER_BOUND('',#100,.T.);
#84=EDGE_LOOP('',(#172,#173,#174,#175,#176));
#85=EDGE_LOOP('',(#177,#178,#179,#180,#181,#182));
#86=EDGE_LOOP('',(#183));
#87=EDGE_LOOP('',(#184));
#88=EDGE_LOOP('',(#185,#186,#187,#188,#189));
#89=EDGE_LOOP('',(#190));
#90=EDGE_LOOP('',(#191,#192,#193,#194,#195));
#91=EDGE_LOOP('',(#196));
#92=EDGE_LOOP('',(#197,#198,#199,#200,#201,#202));
#93=EDGE_LOOP('',(#203,#204,#205,#206,#207));
#94=EDGE_LOOP('',(#208,#209,#210,#211));
#95=EDGE_LOOP('',(#212,#213,#214,#215));
#96=EDGE_LOOP('',(#216,#217,#218,#219));
#97=EDGE_LOOP('',(#220,#221,#222,#223));
#98=EDGE_LOOP('',(#224,#225,#226,#227,#228));
#99=EDGE_LOOP('',(#229,#230,#231,#232));
#100=EDGE_LOOP('',(#233,#234,#235,#236,#237,#238,#239,#240,#241));
#101=CIRCLE('',#283,2.6);
#102=CIRCLE('',#284,0.1);
#103=CIRCLE('',#285,2.5);
#104=CIRCLE('',#286,2.5);
#105=CIRCLE('',#288,2.5);
#106=CIRCLE('',#289,2.5);
#107=CIRCLE('',#291,4.5);
#108=CIRCLE('',#293,2.009235);
#109=CIRCLE('',#296,4.5);
#110=CIRCLE('',#297,4.5);
#111=CIRCLE('',#298,0.5);
#112=CIRCLE('',#299,4.);
#113=VERTEX_POINT('',#383);
#114=VERTEX_POINT('',#385);
#115=VERTEX_POINT('',#387);
#116=VERTEX_POINT('',#391);
#117=VERTEX_POINT('',#392);
#118=VERTEX_POINT('',#397);
#119=VERTEX_POINT('',#400);
#120=VERTEX_POINT('',#405);
#121=VERTEX_POINT('',#406);
#122=VERTEX_POINT('',#409);
#123=VERTEX_POINT('',#413);
#124=VERTEX_POINT('',#414);
#125=VERTEX_POINT('',#416);
#126=VERTEX_POINT('',#418);
#127=VERTEX_POINT('',#420);
#128=VERTEX_POINT('',#422);
#129=VERTEX_POINT('',#428);
#130=VERTEX_POINT('',#429);
#131=VERTEX_POINT('',#436);
#132=VERTEX_POINT('',#442);
#133=VERTEX_POINT('',#448);
#134=VERTEX_POINT('',#454);
#135=VERTEX_POINT('',#458);
#136=VERTEX_POINT('',#468);
#137=EDGE_CURVE('',#113,#113,#101,.T.);
#138=EDGE_CURVE('',#113,#114,#102,.T.);
#139=EDGE_CURVE('',#114,#115,#103,.T.);
#140=EDGE_CURVE('',#115,#114,#104,.T.);
#141=EDGE_CURVE('',#116,#117,#105,.T.);
#142=EDGE_CURVE('',#117,#116,#106,.T.);
#143=EDGE_CURVE('',#117,#115,#35,.T.);
#144=EDGE_CURVE('',#118,#118,#107,.T.);
#145=EDGE_CURVE('',#119,#119,#108,.T.);
#146=EDGE_CURVE('',#119,#116,#36,.T.);
#147=EDGE_CURVE('',#120,#121,#109,.T.);
#148=EDGE_CURVE('',#121,#120,#110,.T.);
#149=EDGE_CURVE('',#120,#122,#111,.T.);
#150=EDGE_CURVE('',#122,#122,#112,.T.);
#151=EDGE_CURVE('',#123,#124,#37,.T.);
#152=EDGE_CURVE('',#124,#125,#38,.T.);
#153=EDGE_CURVE('',#125,#126,#39,.T.);
#154=EDGE_CURVE('',#126,#127,#40,.T.);
#155=EDGE_CURVE('',#127,#128,#41,.T.);
#156=EDGE_CURVE('',#128,#123,#42,.T.);
#157=EDGE_CURVE('',#118,#121,#43,.T.);
#158=EDGE_CURVE('',#129,#130,#15,.T.);
#159=EDGE_CURVE('',#129,#128,#44,.T.);
#160=EDGE_CURVE('',#130,#127,#45,.T.);
#161=EDGE_CURVE('',#131,#129,#16,.T.);
#162=EDGE_CURVE('',#131,#123,#46,.T.);
#163=EDGE_CURVE('',#132,#131,#17,.T.);
#164=EDGE_CURVE('',#132,#124,#47,.T.);
#165=EDGE_CURVE('',#133,#132,#18,.T.);
#166=EDGE_CURVE('',#125,#133,#48,.T.);
#167=EDGE_CURVE('',#130,#134,#19,.T.);
#168=EDGE_CURVE('',#135,#126,#49,.T.);
#169=EDGE_CURVE('',#134,#135,#20,.T.);
#170=EDGE_CURVE('',#135,#133,#21,.T.);
#171=EDGE_CURVE('',#136,#134,#50,.T.);
#172=ORIENTED_EDGE('',*,*,#137,.T.);
#173=ORIENTED_EDGE('',*,*,#138,.T.);
#174=ORIENTED_EDGE('',*,*,#139,.T.);
#175=ORIENTED_EDGE('',*,*,#140,.T.);
#176=ORIENTED_EDGE('',*,*,#138,.F.);
#177=ORIENTED_EDGE('',*,*,#141,.F.);
#178=ORIENTED_EDGE('',*,*,#142,.F.);
#179=ORIENTED_EDGE('',*,*,#143,.T.);
#180=ORIENTED_EDGE('',*,*,#139,.F.);
#181=ORIENTED_EDGE('',*,*,#140,.F.);
#182=ORIENTED_EDGE('',*,*,#143,.F.);
#183=ORIENTED_EDGE('',*,*,#144,.T.);
#184=ORIENTED_EDGE('',*,*,#137,.F.);
#185=ORIENTED_EDGE('',*,*,#145,.T.);
#186=ORIENTED_EDGE('',*,*,#146,.T.);
#187=ORIENTED_EDGE('',*,*,#141,.T.);
#188=ORIENTED_EDGE('',*,*,#142,.T.);
#189=ORIENTED_EDGE('',*,*,#146,.F.);
#190=ORIENTED_EDGE('',*,*,#145,.F.);
#191=ORIENTED_EDGE('',*,*,#147,.T.);
#192=ORIENTED_EDGE('',*,*,#148,.T.);
#193=ORIENTED_EDGE('',*,*,#149,.T.);
#194=ORIENTED_EDGE('',*,*,#150,.T.);
#195=ORIENTED_EDGE('',*,*,#149,.F.);
#196=ORIENTED_EDGE('',*,*,#150,.F.);
#197=ORIENTED_EDGE('',*,*,#151,.T.);
#198=ORIENTED_EDGE('',*,*,#152,.T.);
#199=ORIENTED_EDGE('',*,*,#153,.T.);
#200=ORIENTED_EDGE('',*,*,#154,.T.);
#201=ORIENTED_EDGE('',*,*,#155,.T.);
#202=ORIENTED_EDGE('',*,*,#156,.T.);
#203=ORIENTED_EDGE('',*,*,#144,.F.);
#204=ORIENTED_EDGE('',*,*,#157,.T.);
#205=ORIENTED_EDGE('',*,*,#147,.F.);
#206=ORIENTED_EDGE('',*,*,#148,.F.);
#207=ORIENTED_EDGE('',*,*,#157,.F.);
#208=ORIENTED_EDGE('',*,*,#158,.F.);
#209=ORIENTED_EDGE('',*,*,#159,.T.);
#210=ORIENTED_EDGE('',*,*,#155,.F.);
#211=ORIENTED_EDGE('',*,*,#160,.F.);
#212=ORIENTED_EDGE('',*,*,#161,.F.);
#213=ORIENTED_EDGE('',*,*,#162,.T.);
#214=ORIENTED_EDGE('',*,*,#156,.F.);
#215=ORIENTED_EDGE('',*,*,#159,.F.);
#216=ORIENTED_EDGE('',*,*,#163,.F.);
#217=ORIENTED_EDGE('',*,*,#164,.T.);
#218=ORIENTED_EDGE('',*,*,#151,.F.);
#219=ORIENTED_EDGE('',*,*,#162,.F.);
#220=ORIENTED_EDGE('',*,*,#165,.F.);
#221=ORIENTED_EDGE('',*,*,#166,.F.);
#222=ORIENTED_EDGE('',*,*,#152,.F.);
#223=ORIENTED_EDGE('',*,*,#164,.F.);
#224=ORIENTED_EDGE('',*,*,#167,.F.);
#225=ORIENTED_EDGE('',*,*,#160,.T.);
#226=ORIENTED_EDGE('',*,*,#154,.F.);
#227=ORIENTED_EDGE('',*,*,#168,.F.);
#228=ORIENTED_EDGE('',*,*,#169,.F.);
#229=ORIENTED_EDGE('',*,*,#170,.F.);
#230=ORIENTED_EDGE('',*,*,#168,.T.);
#231=ORIENTED_EDGE('',*,*,#153,.F.);
#232=ORIENTED_EDGE('',*,*,#166,.T.);
#233=ORIENTED_EDGE('',*,*,#171,.T.);
#234=ORIENTED_EDGE('',*,*,#169,.T.);
#235=ORIENTED_EDGE('',*,*,#170,.T.);
#236=ORIENTED_EDGE('',*,*,#165,.T.);
#237=ORIENTED_EDGE('',*,*,#163,.T.);
#238=ORIENTED_EDGE('',*,*,#161,.T.);
#239=ORIENTED_EDGE('',*,*,#158,.T.);
#240=ORIENTED_EDGE('',*,*,#167,.T.);
#241=ORIENTED_EDGE('',*,*,#171,.F.);
#242=TOROIDAL_SURFACE('',#282,2.6,0.1);
#243=TOROIDAL_SURFACE('',#295,4.,0.5);
#244=ADVANCED_FACE('',(#69),#242,.F.);
#245=ADVANCED_FACE('',(#70),#67,.T.);
#246=ADVANCED_FACE('',(#71,#24),#26,.T.);
#247=ADVANCED_FACE('',(#72),#22,.T.);
#248=ADVANCED_FACE('',(#73),#27,.T.);
#249=ADVANCED_FACE('',(#74),#243,.T.);
#250=ADVANCED_FACE('',(#75,#25),#28,.T.);
#251=ADVANCED_FACE('',(#76),#68,.T.);
#252=ADVANCED_FACE('',(#77),#29,.F.);
#253=ADVANCED_FACE('',(#78),#30,.F.);
#254=ADVANCED_FACE('',(#79),#31,.F.);
#255=ADVANCED_FACE('',(#80),#32,.F.);
#256=ADVANCED_FACE('',(#81),#33,.F.);
#257=ADVANCED_FACE('',(#82),#34,.F.);
#258=ADVANCED_FACE('',(#83),#23,.F.);
#259=CLOSED_SHELL('',(#244,#245,#246,#247,#248,#249,#250,#251,#252,#253,
#254,#255,#256,#257,#258));
#260=DERIVED_UNIT_ELEMENT(#263,1.);
#261=DERIVED_UNIT_ELEMENT(#475,-3.);
#262=DIMENSIONAL_EXPONENTS(0.,1.,0.,0.,0.,0.,0.);
#263=(
CONVERSION_BASED_UNIT('gram',#265)
MASS_UNIT()
NAMED_UNIT(#262)
);
#264=(
MASS_UNIT()
NAMED_UNIT(*)
SI_UNIT(.KILO.,.GRAM.)
);
#265=MASS_MEASURE_WITH_UNIT(MASS_MEASURE(0.001),#264);
#266=DERIVED_UNIT((#260,#261));
#267=MEASURE_REPRESENTATION_ITEM('density measure',
POSITIVE_RATIO_MEASURE(1.),#266);
#268=PROPERTY_DEFINITION_REPRESENTATION(#273,#270);
#269=PROPERTY_DEFINITION_REPRESENTATION(#274,#271);
#270=REPRESENTATION('material name',(#272),#472);
#271=REPRESENTATION('density',(#267),#472);
#272=DESCRIPTIVE_REPRESENTATION_ITEM('As Supplied','As Supplied');
#273=PROPERTY_DEFINITION('material property','material name',#482);
#274=PROPERTY_DEFINITION('material property','density of part',#482);
#275=DATE_TIME_ROLE('creation_date');
#276=APPLIED_DATE_AND_TIME_ASSIGNMENT(#277,#275,(#482));
#277=DATE_AND_TIME(#278,#279);
#278=CALENDAR_DATE(2022,7,9);
#279=LOCAL_TIME(0,0,0.,#280);
#280=COORDINATED_UNIVERSAL_TIME_OFFSET(0,0,.BEHIND.);
#281=AXIS2_PLACEMENT_3D('',#381,#309,#310);
#282=AXIS2_PLACEMENT_3D('',#382,#311,#312);
#283=AXIS2_PLACEMENT_3D('',#384,#313,#314);
#284=AXIS2_PLACEMENT_3D('',#386,#315,#316);
#285=AXIS2_PLACEMENT_3D('',#388,#317,#318);
#286=AXIS2_PLACEMENT_3D('',#389,#319,#320);
#287=AXIS2_PLACEMENT_3D('',#390,#321,#322);
#288=AXIS2_PLACEMENT_3D('',#393,#323,#324);
#289=AXIS2_PLACEMENT_3D('',#394,#325,#326);
#290=AXIS2_PLACEMENT_3D('',#396,#328,#329);
#291=AXIS2_PLACEMENT_3D('',#398,#330,#331);
#292=AXIS2_PLACEMENT_3D('',#399,#332,#333);
#293=AXIS2_PLACEMENT_3D('',#401,#334,#335);
#294=AXIS2_PLACEMENT_3D('',#403,#337,#338);
#295=AXIS2_PLACEMENT_3D('',#404,#339,#340);
#296=AXIS2_PLACEMENT_3D('',#407,#341,#342);
#297=AXIS2_PLACEMENT_3D('',#408,#343,#344);
#298=AXIS2_PLACEMENT_3D('',#410,#345,#346);
#299=AXIS2_PLACEMENT_3D('',#411,#347,#348);
#300=AXIS2_PLACEMENT_3D('',#412,#349,#350);
#301=AXIS2_PLACEMENT_3D('',#425,#357,#358);
#302=AXIS2_PLACEMENT_3D('',#427,#360,#361);
#303=AXIS2_PLACEMENT_3D('',#435,#364,#365);
#304=AXIS2_PLACEMENT_3D('',#441,#367,#368);
#305=AXIS2_PLACEMENT_3D('',#447,#370,#371);
#306=AXIS2_PLACEMENT_3D('',#453,#373,#374);
#307=AXIS2_PLACEMENT_3D('',#463,#376,#377);
#308=AXIS2_PLACEMENT_3D('',#467,#378,#379);
#309=DIRECTION('axis',(0.,0.,1.));
#310=DIRECTION('refdir',(1.,0.,0.));
#311=DIRECTION('center_axis',(1.,-4.95688146613722E-18,0.));
#312=DIRECTION('ref_axis',(0.,0.,-1.));
#313=DIRECTION('center_axis',(1.,-4.95688146613722E-18,0.));
#314=DIRECTION('ref_axis',(-4.95688146613722E-18,-1.,1.22464679914735E-16));
#315=DIRECTION('center_axis',(-4.95688146613722E-18,-1.,-1.22464679914735E-16));
#316=DIRECTION('ref_axis',(0.,-1.22464679914735E-16,1.));
#317=DIRECTION('center_axis',(-1.,4.95688146613722E-18,0.));
#318=DIRECTION('ref_axis',(-6.93889390390722E-18,-1.,1.22464679914735E-16));
#319=DIRECTION('center_axis',(-1.,4.95688146613722E-18,0.));
#320=DIRECTION('ref_axis',(-6.93889390390722E-18,-1.,1.22464679914735E-16));
#321=DIRECTION('center_axis',(1.,-4.95688146613722E-18,0.));
#322=DIRECTION('ref_axis',(0.,1.,0.));
#323=DIRECTION('center_axis',(1.,-4.95688146613722E-18,0.));
#324=DIRECTION('ref_axis',(0.,-1.,0.));
#325=DIRECTION('center_axis',(1.,-4.95688146613722E-18,0.));
#326=DIRECTION('ref_axis',(0.,-1.,0.));
#327=DIRECTION('',(-1.,4.95688146613722E-18,0.));
#328=DIRECTION('center_axis',(1.,-4.95688146613722E-18,0.));
#329=DIRECTION('ref_axis',(0.,0.,-1.));
#330=DIRECTION('center_axis',(1.,-4.95688146613722E-18,0.));
#331=DIRECTION('ref_axis',(0.,1.,0.));
#332=DIRECTION('center_axis',(-1.,4.95688146613722E-18,0.));
#333=DIRECTION('ref_axis',(-2.20869831193411E-18,-1.,0.));
#334=DIRECTION('center_axis',(-1.,4.95688146613722E-18,0.));
#335=DIRECTION('ref_axis',(-4.95688146613722E-18,-1.,0.));
#336=DIRECTION('',(-0.707095974746744,0.707117587461203,8.65969290105161E-17));
#337=DIRECTION('center_axis',(1.,-4.95688146613722E-18,0.));
#338=DIRECTION('ref_axis',(0.,0.,-1.));
#339=DIRECTION('center_axis',(1.,-4.95688146613722E-18,0.));
#340=DIRECTION('ref_axis',(0.,0.,-1.));
#341=DIRECTION('center_axis',(-1.,4.95688146613722E-18,0.));
#342=DIRECTION('ref_axis',(0.,-1.,1.22464679914735E-16));
#343=DIRECTION('center_axis',(-1.,4.95688146613722E-18,0.));
#344=DIRECTION('ref_axis',(0.,-1.,1.22464679914735E-16));
#345=DIRECTION('center_axis',(-4.95688146613722E-18,-1.,-1.22464679914735E-16));
#346=DIRECTION('ref_axis',(0.,-1.22464679914735E-16,1.));
#347=DIRECTION('center_axis',(1.,-4.95688146613722E-18,0.));
#348=DIRECTION('ref_axis',(-4.95688146613722E-18,-1.,1.22464679914735E-16));
#349=DIRECTION('center_axis',(-1.,4.95688146613722E-18,0.));
#350=DIRECTION('ref_axis',(0.,0.,1.));
#351=DIRECTION('',(7.1489235751561E-33,1.44222201478767E-15,1.));
#352=DIRECTION('',(-4.29278527322309E-18,-0.866025403784438,0.500000000000001));
#353=DIRECTION('',(-4.29278527322309E-18,-0.866025403784439,-0.5));
#354=DIRECTION('',(-1.58864968336802E-33,-3.20493781063927E-16,-1.));
#355=DIRECTION('',(4.29278527322309E-18,0.866025403784438,-0.500000000000001));
#356=DIRECTION('',(4.29278527322309E-18,0.866025403784439,0.499999999999999));
#357=DIRECTION('center_axis',(1.,-4.95688146613722E-18,0.));
#358=DIRECTION('ref_axis',(0.,1.,0.));
#359=DIRECTION('',(-1.,4.95688146613722E-18,0.));
#360=DIRECTION('center_axis',(-2.47844073306861E-18,-0.500000000000001,
-0.866025403784438));
#361=DIRECTION('ref_axis',(-1.,0.,2.8618568488154E-18));
#362=DIRECTION('',(-1.,4.95688146613722E-18,0.));
#363=DIRECTION('',(-1.,4.95688146613722E-18,0.));
#364=DIRECTION('center_axis',(2.47844073306861E-18,0.499999999999999,-0.866025403784439));
#365=DIRECTION('ref_axis',(-1.,0.,-2.86185684881538E-18));
#366=DIRECTION('',(-1.,4.95688146613722E-18,0.));
#367=DIRECTION('center_axis',(4.95688146613722E-18,1.,-1.44222201478767E-15));
#368=DIRECTION('ref_axis',(0.,1.44222201478767E-15,1.));
#369=DIRECTION('',(-1.,4.95688146613722E-18,0.));
#370=DIRECTION('center_axis',(2.47844073306862E-18,0.500000000000001,0.866025403784438));
#371=DIRECTION('ref_axis',(1.,0.,-2.8618568488154E-18));
#372=DIRECTION('',(1.,-4.95688146613722E-18,0.));
#373=DIRECTION('center_axis',(-4.95688146613722E-18,-1.,3.20493781063927E-16));
#374=DIRECTION('ref_axis',(0.,-3.20493781063927E-16,-1.));
#375=DIRECTION('',(-1.,4.95688146613722E-18,0.));
#376=DIRECTION('center_axis',(-2.47844073306861E-18,-0.5,0.866025403784439));
#377=DIRECTION('ref_axis',(1.,0.,2.86185684881539E-18));
#378=DIRECTION('center_axis',(-1.,4.95688146613722E-18,0.));
#379=DIRECTION('ref_axis',(0.,1.,0.));
#380=DIRECTION('',(-0.5,-0.866025403784438,-1.06057523872491E-16));
#381=CARTESIAN_POINT('',(0.,0.,0.));
#382=CARTESIAN_POINT('Origin',(0.100000000000002,2.92456006502096E-17,0.));
#383=CARTESIAN_POINT('',(2.20309881449055E-15,-2.88666878981488E-16,2.6));
#384=CARTESIAN_POINT('Origin',(2.20309881449055E-15,2.97412887968233E-17,
0.));
#385=CARTESIAN_POINT('',(0.100000000000002,-2.76916099136628E-16,2.5));
#386=CARTESIAN_POINT('Origin',(0.100000000000002,-2.89162567128102E-16,
2.6));
#387=CARTESIAN_POINT('',(0.100000000000002,-2.5,-3.06161699786838E-16));
#388=CARTESIAN_POINT('Origin',(0.100000000000002,2.92456006502096E-17,0.));
#389=CARTESIAN_POINT('Origin',(0.100000000000002,2.92456006502096E-17,0.));
#390=CARTESIAN_POINT('Origin',(3.5,1.23922036653431E-17,0.));
#391=CARTESIAN_POINT('',(5.50925,2.5,3.06161699786838E-16));
#392=CARTESIAN_POINT('',(5.50925,-2.5,-3.06161699786838E-16));
#393=CARTESIAN_POINT('Origin',(5.50925,2.43258957950684E-18,0.));
#394=CARTESIAN_POINT('Origin',(5.50925,2.43258957950684E-18,0.));
#395=CARTESIAN_POINT('',(3.5,-2.5,-3.06161699786838E-16));
#396=CARTESIAN_POINT('Origin',(2.22044604925031E-15,3.5,0.));
#397=CARTESIAN_POINT('',(2.22044604925031E-15,-4.5,-5.51091059616309E-16));
#398=CARTESIAN_POINT('Origin',(2.22044604925031E-15,2.97412887968233E-17,
0.));
#399=CARTESIAN_POINT('Origin',(5.754625,1.21629478975342E-18,0.));
#400=CARTESIAN_POINT('',(6.,2.009235,-2.46060321148483E-16));
#401=CARTESIAN_POINT('Origin',(6.,-5.2963073470649E-33,0.));
#402=CARTESIAN_POINT('',(5.754625,2.2546175,2.7611101046766E-16));
#403=CARTESIAN_POINT('Origin',(6.,1.25,0.));
#404=CARTESIAN_POINT('Origin',(-0.999999999999995,3.46981702629605E-17,
0.));
#405=CARTESIAN_POINT('',(-0.999999999999995,-5.16392889353349E-16,4.5));
#406=CARTESIAN_POINT('',(-0.999999999999995,-4.5,-5.51091059616309E-16));
#407=CARTESIAN_POINT('Origin',(-0.999999999999995,3.46981702629605E-17,
0.));
#408=CARTESIAN_POINT('Origin',(-0.999999999999995,3.46981702629605E-17,
0.));
#409=CARTESIAN_POINT('',(-1.49999999999999,-4.52682108662912E-16,4.));
#410=CARTESIAN_POINT('Origin',(-0.999999999999995,-4.55160549395981E-16,
4.));
#411=CARTESIAN_POINT('Origin',(-1.49999999999999,3.71766109960292E-17,0.));
#412=CARTESIAN_POINT('Origin',(-1.49999999999999,3.11602540378444,0.));
#413=CARTESIAN_POINT('',(-1.49999999999999,1.5,-0.866025403784441));
#414=CARTESIAN_POINT('',(-1.49999999999999,1.5,0.866025403784436));
#415=CARTESIAN_POINT('',(-1.49999999999999,1.5,0.433012701892217));
#416=CARTESIAN_POINT('',(-1.49999999999999,2.49291658741011E-16,1.73205080756888));
#417=CARTESIAN_POINT('',(-1.49999999999999,0.375000000000001,1.51554445662277));
#418=CARTESIAN_POINT('',(-1.49999999999999,-1.5,0.866025403784439));
#419=CARTESIAN_POINT('',(-1.49999999999999,-1.125,1.08253175473055));
#420=CARTESIAN_POINT('',(-1.49999999999999,-1.5,-0.866025403784438));
#421=CARTESIAN_POINT('',(-1.49999999999999,-1.5,-0.433012701892219));
#422=CARTESIAN_POINT('',(-1.49999999999999,-1.55876898690263E-15,-1.73205080756888));
#423=CARTESIAN_POINT('',(-1.49999999999999,-0.375000000000001,-1.51554445662277));
#424=CARTESIAN_POINT('',(-1.49999999999999,1.125,-1.08253175473055));
#425=CARTESIAN_POINT('Origin',(-0.749999999999996,3.34589498964262E-17,
0.));
#426=CARTESIAN_POINT('',(-0.749999999999996,-4.5,-5.51091059616309E-16));
#427=CARTESIAN_POINT('Origin',(-1.49999999999999,-1.55876898690263E-15,
-1.73205080756888));
#428=CARTESIAN_POINT('',(1.50000000000001,-1.68020518133615E-15,-1.73205080756888));
#429=CARTESIAN_POINT('',(1.50000000000001,-1.5,-0.866025403784438));
#430=CARTESIAN_POINT('Ctrl Pts',(1.50000000000001,-2.37657301245994E-15,
-1.73205080756888));
#431=CARTESIAN_POINT('Ctrl Pts',(1.75000000000001,-0.750000000000001,-1.29903810567666));
#432=CARTESIAN_POINT('Ctrl Pts',(1.50000000000001,-1.5,-0.866025403784438));
#433=CARTESIAN_POINT('',(5.54739746202618E-15,-1.66533453693773E-15,-1.73205080756888));
#434=CARTESIAN_POINT('',(5.54367980092658E-15,-1.5,-0.866025403784438));
#435=CARTESIAN_POINT('Origin',(-1.49999999999999,1.5,-0.866025403784441));
#436=CARTESIAN_POINT('',(1.50000000000001,1.5,-0.86602540378444));
#437=CARTESIAN_POINT('Ctrl Pts',(1.50000000000001,1.5,-0.866025403784441));
#438=CARTESIAN_POINT('Ctrl Pts',(1.75000000000001,0.749999999999999,-1.29903810567666));
#439=CARTESIAN_POINT('Ctrl Pts',(1.50000000000001,-8.50016353600347E-16,
-1.73205080756888));
#440=CARTESIAN_POINT('',(5.55483278422539E-15,1.5,-0.86602540378444));
#441=CARTESIAN_POINT('Origin',(-1.49999999999999,1.5,0.866025403784436));
#442=CARTESIAN_POINT('',(1.50000000000001,1.5,0.866025403784436));
#443=CARTESIAN_POINT('Ctrl Pts',(1.50000000000001,1.5,0.866025403784436));
#444=CARTESIAN_POINT('Ctrl Pts',(1.75000000000001,1.5,-2.08166817117217E-15));
#445=CARTESIAN_POINT('Ctrl Pts',(1.50000000000001,1.5,-0.86602540378444));
#446=CARTESIAN_POINT('',(5.55855044532499E-15,1.5,0.866025403784436));
#447=CARTESIAN_POINT('Origin',(-1.49999999999999,1.78998497388289E-17,1.73205080756888));
#448=CARTESIAN_POINT('',(1.50000000000001,-1.48706443984117E-17,1.73205080756888));
#449=CARTESIAN_POINT('Ctrl Pts',(1.50000000000001,1.92554120796254E-15,
1.73205080756888));
#450=CARTESIAN_POINT('Ctrl Pts',(1.75000000000001,0.750000000000001,1.29903810567666));
#451=CARTESIAN_POINT('Ctrl Pts',(1.50000000000001,1.5,0.866025403784437));
#452=CARTESIAN_POINT('',(5.55111512312578E-15,0.,1.73205080756888));
#453=CARTESIAN_POINT('Origin',(-1.49999999999999,-1.5,-0.866025403784438));
#454=CARTESIAN_POINT('',(1.63397459621557,-1.5,-2.52866103339695E-16));
#455=CARTESIAN_POINT('Ctrl Pts',(1.50000000000001,-1.5,-0.866025403784438));
#456=CARTESIAN_POINT('Ctrl Pts',(1.63397459621557,-1.5,-0.401923788646684));
#457=CARTESIAN_POINT('Ctrl Pts',(1.63397459621557,-1.5,-3.22035186807286E-16));
#458=CARTESIAN_POINT('',(1.50000000000001,-1.5,0.866025403784438));
#459=CARTESIAN_POINT('',(5.54739746202618E-15,-1.5,0.866025403784439));
#460=CARTESIAN_POINT('Ctrl Pts',(1.63397459621557,-1.5,-3.22035186807286E-16));
#461=CARTESIAN_POINT('Ctrl Pts',(1.63397459621557,-1.5,0.401923788646684));
#462=CARTESIAN_POINT('Ctrl Pts',(1.50000000000001,-1.5,0.866025403784439));
#463=CARTESIAN_POINT('Origin',(-1.49999999999999,-1.5,0.866025403784439));
#464=CARTESIAN_POINT('Ctrl Pts',(1.50000000000001,-1.5,0.866025403784439));
#465=CARTESIAN_POINT('Ctrl Pts',(1.75000000000001,-0.75,1.29903810567666));
#466=CARTESIAN_POINT('Ctrl Pts',(1.50000000000001,-7.11238475522203E-16,
1.73205080756888));
#467=CARTESIAN_POINT('Origin',(2.00000000000001,1.98275258645489E-17,0.));
#468=CARTESIAN_POINT('',(2.50000000000001,1.73490851314803E-17,0.));
#469=CARTESIAN_POINT('',(2.00000000000001,-0.866025403784439,-1.06057523872491E-16));
#470=UNCERTAINTY_MEASURE_WITH_UNIT(LENGTH_MEASURE(0.01),#474,
'DISTANCE_ACCURACY_VALUE',
'Maximum model space distance between geometric entities at asserted c
onnectivities');
#471=UNCERTAINTY_MEASURE_WITH_UNIT(LENGTH_MEASURE(0.01),#474,
'DISTANCE_ACCURACY_VALUE',
'Maximum model space distance between geometric entities at asserted c
onnectivities');
#472=(
GEOMETRIC_REPRESENTATION_CONTEXT(3)
GLOBAL_UNCERTAINTY_ASSIGNED_CONTEXT((#470))
GLOBAL_UNIT_ASSIGNED_CONTEXT((#474,#476,#477))
REPRESENTATION_CONTEXT('','3D')
);
#473=(
GEOMETRIC_REPRESENTATION_CONTEXT(3)
GLOBAL_UNCERTAINTY_ASSIGNED_CONTEXT((#471))
GLOBAL_UNIT_ASSIGNED_CONTEXT((#474,#476,#477))
REPRESENTATION_CONTEXT('','3D')
);
#474=(
LENGTH_UNIT()
NAMED_UNIT(*)
SI_UNIT(.MILLI.,.METRE.)
);
#475=(
LENGTH_UNIT()
NAMED_UNIT(*)
SI_UNIT(.CENTI.,.METRE.)
);
#476=(
NAMED_UNIT(*)
PLANE_ANGLE_UNIT()
SI_UNIT($,.RADIAN.)
);
#477=(
NAMED_UNIT(*)
SI_UNIT($,.STERADIAN.)
SOLID_ANGLE_UNIT()
);
#478=SHAPE_DEFINITION_REPRESENTATION(#479,#480);
#479=PRODUCT_DEFINITION_SHAPE('',$,#482);
#480=SHAPE_REPRESENTATION('',(#281),#472);
#481=PRODUCT_DEFINITION_CONTEXT('part definition',#486,'design');
#482=PRODUCT_DEFINITION('LOW PROFILE SCREW M5 X 8 (M5.8)',
'LOW PROFILE SCREW M5 X 8 (M5.8)',#483,#481);
#483=PRODUCT_DEFINITION_FORMATION('',$,#488);
#484=PRODUCT_RELATED_PRODUCT_CATEGORY('LOW PROFILE SCREW M5 X 8 (M5.8)',
'LOW PROFILE SCREW M5 X 8 (M5.8)',(#488));
#485=APPLICATION_PROTOCOL_DEFINITION('international standard',
'automotive_design',2009,#486);
#486=APPLICATION_CONTEXT(
'Core Data for Automotive Mechanical Design Process');
#487=PRODUCT_CONTEXT('part definition',#486,'mechanical');
#488=PRODUCT('LOW PROFILE SCREW M5 X 8 (M5.8)',
'LOW PROFILE SCREW M5 X 8 (M5.8)','LOW PROFILE SCREW - BLACK',(#487));
#489=PRESENTATION_STYLE_ASSIGNMENT((#490));
#490=SURFACE_STYLE_USAGE(.BOTH.,#493);
#491=SURFACE_STYLE_RENDERING_WITH_PROPERTIES($,#497,(#492));
#492=SURFACE_STYLE_TRANSPARENT(0.);
#493=SURFACE_SIDE_STYLE('',(#494,#491));
#494=SURFACE_STYLE_FILL_AREA(#495);
#495=FILL_AREA_STYLE('',(#496));
#496=FILL_AREA_STYLE_COLOUR('',#497);
#497=COLOUR_RGB('',0.184313725490196,0.184313725490196,0.184313725490196);
ENDSEC;
END-ISO-10303-21;
