ISO-10303-21;
HEADER;
/* Generated by software containing ST-Developer
 * from STEP Tools, Inc. (www.steptools.com) 
 */

FILE_DESCRIPTION(
/* description */ (''),
/* implementation_level */ '2;1');

FILE_NAME(
/* name */ 'MK8 NOZZELS (M6.2.0.2-0.4).stp',
/* time_stamp */ '2023-03-01T15:16:11+02:00',
/* author */ ('arnold.brand'),
/* organization */ (''),
/* preprocessor_version */ 'ST-DEVELOPER v19.2',
/* originating_system */ 'Autodesk Inventor 2023',
/* authorisation */ '');

FILE_SCHEMA (('AUTOMOTIVE_DESIGN { 1 0 10303 214 3 1 1 }'));
ENDSEC;

DATA;
#10=MECHANICAL_DESIGN_GEOMETRIC_PRESENTATION_REPRESENTATION('',(#13),#497);
#11=SHAPE_REPRESENTATION_RELATIONSHIP('SRR','None',#504,#12);
#12=ADVANCED_BREP_SHAPE_REPRESENTATION('',(#14),#496);
#13=STYLED_ITEM('',(#513),#14);
#14=MANIFOLD_SOLID_BREP('Solid3',#277);
#15=(
BOUNDED_CURVE()
B_SPLINE_CURVE(2,(#435,#436,#437),.UNSPECIFIED.,.F.,.F.)
B_SPLINE_CURVE_WITH_KNOTS((3,3),(0.59336842363336,1.34343512861452),
 .UNSPECIFIED.)
CURVE()
GEOMETRIC_REPRESENTATION_ITEM()
RATIONAL_B_SPLINE_CURVE((1.7806031967486,2.05606346991805,1.7806031967486))
REPRESENTATION_ITEM('')
);
#16=(
BOUNDED_CURVE()
B_SPLINE_CURVE(2,(#439,#440,#441),.UNSPECIFIED.,.F.,.F.)
B_SPLINE_CURVE_WITH_KNOTS((3,3),(0.593368423633359,1.34343512861452),
 .UNSPECIFIED.)
CURVE()
GEOMETRIC_REPRESENTATION_ITEM()
RATIONAL_B_SPLINE_CURVE((1.7806031967486,2.05606346991806,1.7806031967486))
REPRESENTATION_ITEM('')
);
#17=(
BOUNDED_CURVE()
B_SPLINE_CURVE(2,(#443,#444,#445),.UNSPECIFIED.,.F.,.F.)
B_SPLINE_CURVE_WITH_KNOTS((3,3),(0.593368423633358,1.34343512861451),
 .UNSPECIFIED.)
CURVE()
GEOMETRIC_REPRESENTATION_ITEM()
RATIONAL_B_SPLINE_CURVE((1.7806031967486,2.05606346991806,1.78060319674861))
REPRESENTATION_ITEM('')
);
#18=(
BOUNDED_CURVE()
B_SPLINE_CURVE(2,(#447,#448,#449),.UNSPECIFIED.,.F.,.F.)
B_SPLINE_CURVE_WITH_KNOTS((3,3),(0.593368423633359,1.34343512861452),
 .UNSPECIFIED.)
CURVE()
GEOMETRIC_REPRESENTATION_ITEM()
RATIONAL_B_SPLINE_CURVE((1.7806031967486,2.05606346991805,1.7806031967486))
REPRESENTATION_ITEM('')
);
#19=(
BOUNDED_CURVE()
B_SPLINE_CURVE(2,(#451,#452,#453),.UNSPECIFIED.,.F.,.F.)
B_SPLINE_CURVE_WITH_KNOTS((3,3),(0.593368423633359,1.34343512861452),
 .UNSPECIFIED.)
CURVE()
GEOMETRIC_REPRESENTATION_ITEM()
RATIONAL_B_SPLINE_CURVE((1.7806031967486,2.05606346991805,1.7806031967486))
REPRESENTATION_ITEM('')
);
#20=(
BOUNDED_CURVE()
B_SPLINE_CURVE(2,(#454,#455,#456),.UNSPECIFIED.,.F.,.F.)
B_SPLINE_CURVE_WITH_KNOTS((3,3),(0.593368423633358,1.34343512861452),
 .UNSPECIFIED.)
CURVE()
GEOMETRIC_REPRESENTATION_ITEM()
RATIONAL_B_SPLINE_CURVE((1.7806031967486,2.05606346991806,1.7806031967486))
REPRESENTATION_ITEM('')
);
#21=CYLINDRICAL_SURFACE('',#306,0.9);
#22=CYLINDRICAL_SURFACE('',#310,2.9);
#23=CYLINDRICAL_SURFACE('',#321,0.2);
#24=FACE_BOUND('',#57,.T.);
#25=FACE_BOUND('',#67,.T.);
#26=FACE_BOUND('',#70,.T.);
#27=FACE_BOUND('',#75,.T.);
#28=PLANE('',#304);
#29=PLANE('',#314);
#30=PLANE('',#315);
#31=PLANE('',#316);
#32=PLANE('',#320);
#33=PLANE('',#323);
#34=PLANE('',#324);
#35=PLANE('',#325);
#36=PLANE('',#326);
#37=PLANE('',#327);
#38=FACE_OUTER_BOUND('',#55,.T.);
#39=FACE_OUTER_BOUND('',#56,.T.);
#40=FACE_OUTER_BOUND('',#58,.T.);
#41=FACE_OUTER_BOUND('',#59,.T.);
#42=FACE_OUTER_BOUND('',#60,.T.);
#43=FACE_OUTER_BOUND('',#61,.T.);
#44=FACE_OUTER_BOUND('',#62,.T.);
#45=FACE_OUTER_BOUND('',#63,.T.);
#46=FACE_OUTER_BOUND('',#64,.T.);
#47=FACE_OUTER_BOUND('',#65,.T.);
#48=FACE_OUTER_BOUND('',#66,.T.);
#49=FACE_OUTER_BOUND('',#68,.T.);
#50=FACE_OUTER_BOUND('',#69,.T.);
#51=FACE_OUTER_BOUND('',#71,.T.);
#52=FACE_OUTER_BOUND('',#72,.T.);
#53=FACE_OUTER_BOUND('',#73,.T.);
#54=FACE_OUTER_BOUND('',#74,.T.);
#55=EDGE_LOOP('',(#184,#185,#186,#187,#188));
#56=EDGE_LOOP('',(#189));
#57=EDGE_LOOP('',(#190));
#58=EDGE_LOOP('',(#191,#192,#193,#194,#195));
#59=EDGE_LOOP('',(#196,#197,#198,#199));
#60=EDGE_LOOP('',(#200,#201,#202,#203));
#61=EDGE_LOOP('',(#204,#205,#206,#207,#208,#209,#210,#211,#212));
#62=EDGE_LOOP('',(#213,#214,#215,#216));
#63=EDGE_LOOP('',(#217,#218,#219,#220));
#64=EDGE_LOOP('',(#221,#222,#223,#224));
#65=EDGE_LOOP('',(#225,#226,#227,#228));
#66=EDGE_LOOP('',(#229));
#67=EDGE_LOOP('',(#230));
#68=EDGE_LOOP('',(#231,#232,#233,#234));
#69=EDGE_LOOP('',(#235,#236,#237,#238,#239,#240));
#70=EDGE_LOOP('',(#241));
#71=EDGE_LOOP('',(#242,#243,#244,#245));
#72=EDGE_LOOP('',(#246,#247,#248,#249));
#73=EDGE_LOOP('',(#250,#251,#252,#253));
#74=EDGE_LOOP('',(#254));
#75=EDGE_LOOP('',(#255));
#76=LINE('',#410,#95);
#77=LINE('',#419,#96);
#78=LINE('',#423,#97);
#79=LINE('',#427,#98);
#80=LINE('',#433,#99);
#81=LINE('',#459,#100);
#82=LINE('',#461,#101);
#83=LINE('',#462,#102);
#84=LINE('',#465,#103);
#85=LINE('',#466,#104);
#86=LINE('',#469,#105);
#87=LINE('',#470,#106);
#88=LINE('',#475,#107);
#89=LINE('',#480,#108);
#90=LINE('',#484,#109);
#91=LINE('',#486,#110);
#92=LINE('',#487,#111);
#93=LINE('',#489,#112);
#94=LINE('',#491,#113);
#95=VECTOR('',#334,1.025);
#96=VECTOR('',#345,0.9);
#97=VECTOR('',#350,2.775);
#98=VECTOR('',#355,2.9);
#99=VECTOR('',#362,10.5);
#100=VECTOR('',#365,10.);
#101=VECTOR('',#366,10.);
#102=VECTOR('',#367,10.);
#103=VECTOR('',#370,10.);
#104=VECTOR('',#371,10.);
#105=VECTOR('',#374,10.);
#106=VECTOR('',#375,10.);
#107=VECTOR('',#380,0.45);
#108=VECTOR('',#387,0.2);
#109=VECTOR('',#392,10.);
#110=VECTOR('',#393,10.);
#111=VECTOR('',#394,10.);
#112=VECTOR('',#397,10.);
#113=VECTOR('',#400,10.);
#114=CIRCLE('',#301,1.15);
#115=CIRCLE('',#302,0.9);
#116=CIRCLE('',#303,0.9);
#117=CIRCLE('',#305,2.65);
#118=CIRCLE('',#307,0.9);
#119=CIRCLE('',#309,2.9);
#120=CIRCLE('',#311,2.9);
#121=CIRCLE('',#313,0.499999999999992);
#122=CIRCLE('',#318,0.2);
#123=CIRCLE('',#319,0.7);
#124=CIRCLE('',#322,0.2);
#125=VERTEX_POINT('',#407);
#126=VERTEX_POINT('',#409);
#127=VERTEX_POINT('',#411);
#128=VERTEX_POINT('',#415);
#129=VERTEX_POINT('',#418);
#130=VERTEX_POINT('',#422);
#131=VERTEX_POINT('',#426);
#132=VERTEX_POINT('',#430);
#133=VERTEX_POINT('',#432);
#134=VERTEX_POINT('',#434);
#135=VERTEX_POINT('',#438);
#136=VERTEX_POINT('',#442);
#137=VERTEX_POINT('',#446);
#138=VERTEX_POINT('',#450);
#139=VERTEX_POINT('',#458);
#140=VERTEX_POINT('',#460);
#141=VERTEX_POINT('',#464);
#142=VERTEX_POINT('',#468);
#143=VERTEX_POINT('',#472);
#144=VERTEX_POINT('',#474);
#145=VERTEX_POINT('',#479);
#146=VERTEX_POINT('',#483);
#147=VERTEX_POINT('',#485);
#148=EDGE_CURVE('',#125,#125,#114,.T.);
#149=EDGE_CURVE('',#125,#126,#76,.T.);
#150=EDGE_CURVE('',#126,#127,#115,.T.);
#151=EDGE_CURVE('',#127,#126,#116,.T.);
#152=EDGE_CURVE('',#128,#128,#117,.T.);
#153=EDGE_CURVE('',#127,#129,#77,.T.);
#154=EDGE_CURVE('',#129,#129,#118,.T.);
#155=EDGE_CURVE('',#128,#130,#78,.T.);
#156=EDGE_CURVE('',#130,#130,#119,.T.);
#157=EDGE_CURVE('',#130,#131,#79,.T.);
#158=EDGE_CURVE('',#131,#131,#120,.T.);
#159=EDGE_CURVE('',#132,#132,#121,.T.);
#160=EDGE_CURVE('',#132,#133,#80,.T.);
#161=EDGE_CURVE('',#134,#133,#15,.T.);
#162=EDGE_CURVE('',#135,#134,#16,.T.);
#163=EDGE_CURVE('',#136,#135,#17,.T.);
#164=EDGE_CURVE('',#137,#136,#18,.T.);
#165=EDGE_CURVE('',#138,#137,#19,.T.);
#166=EDGE_CURVE('',#133,#138,#20,.T.);
#167=EDGE_CURVE('',#139,#135,#81,.T.);
#168=EDGE_CURVE('',#139,#140,#82,.T.);
#169=EDGE_CURVE('',#140,#136,#83,.T.);
#170=EDGE_CURVE('',#141,#134,#84,.T.);
#171=EDGE_CURVE('',#141,#139,#85,.T.);
#172=EDGE_CURVE('',#133,#142,#86,.T.);
#173=EDGE_CURVE('',#142,#141,#87,.T.);
#174=EDGE_CURVE('',#143,#143,#122,.T.);
#175=EDGE_CURVE('',#143,#144,#88,.T.);
#176=EDGE_CURVE('',#144,#144,#123,.T.);
#177=EDGE_CURVE('',#143,#145,#89,.T.);
#178=EDGE_CURVE('',#145,#145,#124,.T.);
#179=EDGE_CURVE('',#146,#142,#90,.T.);
#180=EDGE_CURVE('',#147,#146,#91,.T.);
#181=EDGE_CURVE('',#140,#147,#92,.T.);
#182=EDGE_CURVE('',#147,#137,#93,.T.);
#183=EDGE_CURVE('',#146,#138,#94,.T.);
#184=ORIENTED_EDGE('',*,*,#148,.T.);
#185=ORIENTED_EDGE('',*,*,#149,.T.);
#186=ORIENTED_EDGE('',*,*,#150,.T.);
#187=ORIENTED_EDGE('',*,*,#151,.T.);
#188=ORIENTED_EDGE('',*,*,#149,.F.);
#189=ORIENTED_EDGE('',*,*,#152,.F.);
#190=ORIENTED_EDGE('',*,*,#148,.F.);
#191=ORIENTED_EDGE('',*,*,#150,.F.);
#192=ORIENTED_EDGE('',*,*,#151,.F.);
#193=ORIENTED_EDGE('',*,*,#153,.T.);
#194=ORIENTED_EDGE('',*,*,#154,.F.);
#195=ORIENTED_EDGE('',*,*,#153,.F.);
#196=ORIENTED_EDGE('',*,*,#152,.T.);
#197=ORIENTED_EDGE('',*,*,#155,.T.);
#198=ORIENTED_EDGE('',*,*,#156,.T.);
#199=ORIENTED_EDGE('',*,*,#155,.F.);
#200=ORIENTED_EDGE('',*,*,#156,.F.);
#201=ORIENTED_EDGE('',*,*,#157,.T.);
#202=ORIENTED_EDGE('',*,*,#158,.T.);
#203=ORIENTED_EDGE('',*,*,#157,.F.);
#204=ORIENTED_EDGE('',*,*,#159,.F.);
#205=ORIENTED_EDGE('',*,*,#160,.T.);
#206=ORIENTED_EDGE('',*,*,#161,.F.);
#207=ORIENTED_EDGE('',*,*,#162,.F.);
#208=ORIENTED_EDGE('',*,*,#163,.F.);
#209=ORIENTED_EDGE('',*,*,#164,.F.);
#210=ORIENTED_EDGE('',*,*,#165,.F.);
#211=ORIENTED_EDGE('',*,*,#166,.F.);
#212=ORIENTED_EDGE('',*,*,#160,.F.);
#213=ORIENTED_EDGE('',*,*,#163,.T.);
#214=ORIENTED_EDGE('',*,*,#167,.F.);
#215=ORIENTED_EDGE('',*,*,#168,.T.);
#216=ORIENTED_EDGE('',*,*,#169,.T.);
#217=ORIENTED_EDGE('',*,*,#162,.T.);
#218=ORIENTED_EDGE('',*,*,#170,.F.);
#219=ORIENTED_EDGE('',*,*,#171,.T.);
#220=ORIENTED_EDGE('',*,*,#167,.T.);
#221=ORIENTED_EDGE('',*,*,#161,.T.);
#222=ORIENTED_EDGE('',*,*,#172,.T.);
#223=ORIENTED_EDGE('',*,*,#173,.T.);
#224=ORIENTED_EDGE('',*,*,#170,.T.);
#225=ORIENTED_EDGE('',*,*,#174,.T.);
#226=ORIENTED_EDGE('',*,*,#175,.T.);
#227=ORIENTED_EDGE('',*,*,#176,.T.);
#228=ORIENTED_EDGE('',*,*,#175,.F.);
#229=ORIENTED_EDGE('',*,*,#154,.T.);
#230=ORIENTED_EDGE('',*,*,#176,.F.);
#231=ORIENTED_EDGE('',*,*,#174,.F.);
#232=ORIENTED_EDGE('',*,*,#177,.T.);
#233=ORIENTED_EDGE('',*,*,#178,.F.);
#234=ORIENTED_EDGE('',*,*,#177,.F.);
#235=ORIENTED_EDGE('',*,*,#179,.F.);
#236=ORIENTED_EDGE('',*,*,#180,.F.);
#237=ORIENTED_EDGE('',*,*,#181,.F.);
#238=ORIENTED_EDGE('',*,*,#168,.F.);
#239=ORIENTED_EDGE('',*,*,#171,.F.);
#240=ORIENTED_EDGE('',*,*,#173,.F.);
#241=ORIENTED_EDGE('',*,*,#158,.F.);
#242=ORIENTED_EDGE('',*,*,#164,.T.);
#243=ORIENTED_EDGE('',*,*,#169,.F.);
#244=ORIENTED_EDGE('',*,*,#181,.T.);
#245=ORIENTED_EDGE('',*,*,#182,.T.);
#246=ORIENTED_EDGE('',*,*,#166,.T.);
#247=ORIENTED_EDGE('',*,*,#183,.F.);
#248=ORIENTED_EDGE('',*,*,#179,.T.);
#249=ORIENTED_EDGE('',*,*,#172,.F.);
#250=ORIENTED_EDGE('',*,*,#165,.T.);
#251=ORIENTED_EDGE('',*,*,#182,.F.);
#252=ORIENTED_EDGE('',*,*,#180,.T.);
#253=ORIENTED_EDGE('',*,*,#183,.T.);
#254=ORIENTED_EDGE('',*,*,#159,.T.);
#255=ORIENTED_EDGE('',*,*,#178,.T.);
#256=CONICAL_SURFACE('',#300,1.025,0.785398163397448);
#257=CONICAL_SURFACE('',#308,2.775,0.785398163397448);
#258=CONICAL_SURFACE('',#312,10.5,0.785398163397448);
#259=CONICAL_SURFACE('',#317,0.45,0.785398163397448);
#260=ADVANCED_FACE('',(#38),#256,.F.);
#261=ADVANCED_FACE('',(#39,#24),#28,.T.);
#262=ADVANCED_FACE('',(#40),#21,.F.);
#263=ADVANCED_FACE('',(#41),#257,.T.);
#264=ADVANCED_FACE('',(#42),#22,.T.);
#265=ADVANCED_FACE('',(#43),#258,.T.);
#266=ADVANCED_FACE('',(#44),#29,.T.);
#267=ADVANCED_FACE('',(#45),#30,.T.);
#268=ADVANCED_FACE('',(#46),#31,.T.);
#269=ADVANCED_FACE('',(#47),#259,.F.);
#270=ADVANCED_FACE('',(#48,#25),#32,.T.);
#271=ADVANCED_FACE('',(#49),#23,.F.);
#272=ADVANCED_FACE('',(#50,#26),#33,.T.);
#273=ADVANCED_FACE('',(#51),#34,.T.);
#274=ADVANCED_FACE('',(#52),#35,.T.);
#275=ADVANCED_FACE('',(#53),#36,.T.);
#276=ADVANCED_FACE('',(#54,#27),#37,.T.);
#277=CLOSED_SHELL('',(#260,#261,#262,#263,#264,#265,#266,#267,#268,#269,
#270,#271,#272,#273,#274,#275,#276));
#278=DERIVED_UNIT_ELEMENT(#281,1.);
#279=DERIVED_UNIT_ELEMENT(#499,-3.);
#280=DIMENSIONAL_EXPONENTS(0.,1.,0.,0.,0.,0.,0.);
#281=(
CONVERSION_BASED_UNIT('gram',#283)
MASS_UNIT()
NAMED_UNIT(#280)
);
#282=(
MASS_UNIT()
NAMED_UNIT(*)
SI_UNIT(.KILO.,.GRAM.)
);
#283=MASS_MEASURE_WITH_UNIT(MASS_MEASURE(0.001),#282);
#284=DERIVED_UNIT((#278,#279));
#285=MEASURE_REPRESENTATION_ITEM('density measure',
POSITIVE_RATIO_MEASURE(8.49),#284);
#286=PROPERTY_DEFINITION_REPRESENTATION(#291,#288);
#287=PROPERTY_DEFINITION_REPRESENTATION(#292,#289);
#288=REPRESENTATION('material name',(#290),#496);
#289=REPRESENTATION('density',(#285),#496);
#290=DESCRIPTIVE_REPRESENTATION_ITEM('Brass','Brass');
#291=PROPERTY_DEFINITION('material property','material name',#506);
#292=PROPERTY_DEFINITION('material property','density of part',#506);
#293=DATE_TIME_ROLE('creation_date');
#294=APPLIED_DATE_AND_TIME_ASSIGNMENT(#295,#293,(#506));
#295=DATE_AND_TIME(#296,#297);
#296=CALENDAR_DATE(2023,14,2);
#297=LOCAL_TIME(0,0,0.,#298);
#298=COORDINATED_UNIVERSAL_TIME_OFFSET(0,0,.BEHIND.);
#299=AXIS2_PLACEMENT_3D('',#405,#328,#329);
#300=AXIS2_PLACEMENT_3D('',#406,#330,#331);
#301=AXIS2_PLACEMENT_3D('',#408,#332,#333);
#302=AXIS2_PLACEMENT_3D('',#412,#335,#336);
#303=AXIS2_PLACEMENT_3D('',#413,#337,#338);
#304=AXIS2_PLACEMENT_3D('',#414,#339,#340);
#305=AXIS2_PLACEMENT_3D('',#416,#341,#342);
#306=AXIS2_PLACEMENT_3D('',#417,#343,#344);
#307=AXIS2_PLACEMENT_3D('',#420,#346,#347);
#308=AXIS2_PLACEMENT_3D('',#421,#348,#349);
#309=AXIS2_PLACEMENT_3D('',#424,#351,#352);
#310=AXIS2_PLACEMENT_3D('',#425,#353,#354);
#311=AXIS2_PLACEMENT_3D('',#428,#356,#357);
#312=AXIS2_PLACEMENT_3D('',#429,#358,#359);
#313=AXIS2_PLACEMENT_3D('',#431,#360,#361);
#314=AXIS2_PLACEMENT_3D('',#457,#363,#364);
#315=AXIS2_PLACEMENT_3D('',#463,#368,#369);
#316=AXIS2_PLACEMENT_3D('',#467,#372,#373);
#317=AXIS2_PLACEMENT_3D('',#471,#376,#377);
#318=AXIS2_PLACEMENT_3D('',#473,#378,#379);
#319=AXIS2_PLACEMENT_3D('',#476,#381,#382);
#320=AXIS2_PLACEMENT_3D('',#477,#383,#384);
#321=AXIS2_PLACEMENT_3D('',#478,#385,#386);
#322=AXIS2_PLACEMENT_3D('',#481,#388,#389);
#323=AXIS2_PLACEMENT_3D('',#482,#390,#391);
#324=AXIS2_PLACEMENT_3D('',#488,#395,#396);
#325=AXIS2_PLACEMENT_3D('',#490,#398,#399);
#326=AXIS2_PLACEMENT_3D('',#492,#401,#402);
#327=AXIS2_PLACEMENT_3D('',#493,#403,#404);
#328=DIRECTION('axis',(0.,0.,1.));
#329=DIRECTION('refdir',(1.,0.,0.));
#330=DIRECTION('center_axis',(-1.,0.,0.));
#331=DIRECTION('ref_axis',(0.,0.,-1.));
#332=DIRECTION('center_axis',(-1.,0.,0.));
#333=DIRECTION('ref_axis',(0.,0.,-1.));
#334=DIRECTION('',(0.707106781186548,-8.65956056235493E-17,-0.707106781186547));
#335=DIRECTION('center_axis',(1.,0.,0.));
#336=DIRECTION('ref_axis',(0.,0.,-1.));
#337=DIRECTION('center_axis',(1.,0.,0.));
#338=DIRECTION('ref_axis',(0.,0.,-1.));
#339=DIRECTION('center_axis',(-1.,0.,0.));
#340=DIRECTION('ref_axis',(0.,0.,1.));
#341=DIRECTION('center_axis',(1.,0.,0.));
#342=DIRECTION('ref_axis',(0.,0.,-1.));
#343=DIRECTION('center_axis',(-1.,0.,0.));
#344=DIRECTION('ref_axis',(0.,0.,1.));
#345=DIRECTION('',(1.,0.,0.));
#346=DIRECTION('center_axis',(-1.,0.,0.));
#347=DIRECTION('ref_axis',(0.,0.,1.));
#348=DIRECTION('center_axis',(1.,0.,0.));
#349=DIRECTION('ref_axis',(0.,0.,-1.));
#350=DIRECTION('',(0.707106781186548,8.65956056235493E-17,0.707106781186548));
#351=DIRECTION('center_axis',(-1.,0.,0.));
#352=DIRECTION('ref_axis',(0.,0.,-1.));
#353=DIRECTION('center_axis',(1.,0.,0.));
#354=DIRECTION('ref_axis',(0.,0.,-1.));
#355=DIRECTION('',(1.,0.,0.));
#356=DIRECTION('center_axis',(-1.,0.,0.));
#357=DIRECTION('ref_axis',(0.,0.,-1.));
#358=DIRECTION('center_axis',(-1.,0.,0.));
#359=DIRECTION('ref_axis',(0.,1.,0.));
#360=DIRECTION('center_axis',(1.,0.,0.));
#361=DIRECTION('ref_axis',(0.,1.,0.));
#362=DIRECTION('',(-0.707106781186548,-0.707106781186547,8.65956056235493E-17));
#363=DIRECTION('center_axis',(0.,0.866025403784438,-0.5));
#364=DIRECTION('ref_axis',(0.,0.5,0.866025403784438));
#365=DIRECTION('',(1.,0.,0.));
#366=DIRECTION('',(0.,0.5,0.866025403784438));
#367=DIRECTION('',(1.,0.,0.));
#368=DIRECTION('center_axis',(0.,-1.60246890531963E-16,-1.));
#369=DIRECTION('ref_axis',(0.,1.,-1.60246890531963E-16));
#370=DIRECTION('',(1.,0.,0.));
#371=DIRECTION('',(0.,1.,-1.60246890531963E-16));
#372=DIRECTION('center_axis',(0.,-0.866025403784439,-0.5));
#373=DIRECTION('ref_axis',(0.,0.5,-0.866025403784439));
#374=DIRECTION('',(-1.,0.,0.));
#375=DIRECTION('',(0.,0.5,-0.866025403784439));
#376=DIRECTION('center_axis',(-1.,0.,0.));
#377=DIRECTION('ref_axis',(0.,0.,1.));
#378=DIRECTION('center_axis',(1.,0.,0.));
#379=DIRECTION('ref_axis',(0.,0.,1.));
#380=DIRECTION('',(-0.707106781186548,8.65956056235493E-17,-0.707106781186547));
#381=DIRECTION('center_axis',(-1.,0.,0.));
#382=DIRECTION('ref_axis',(0.,0.,1.));
#383=DIRECTION('center_axis',(-1.,0.,0.));
#384=DIRECTION('ref_axis',(0.,0.,1.));
#385=DIRECTION('center_axis',(-1.,0.,0.));
#386=DIRECTION('ref_axis',(0.,0.,1.));
#387=DIRECTION('',(1.,0.,0.));
#388=DIRECTION('center_axis',(-1.,0.,0.));
#389=DIRECTION('ref_axis',(0.,0.,1.));
#390=DIRECTION('center_axis',(-1.,0.,0.));
#391=DIRECTION('ref_axis',(0.,0.,1.));
#392=DIRECTION('',(0.,-0.5,-0.866025403784439));
#393=DIRECTION('',(0.,-1.,-3.20493781063927E-16));
#394=DIRECTION('',(0.,-0.5,0.866025403784439));
#395=DIRECTION('center_axis',(0.,0.866025403784439,0.5));
#396=DIRECTION('ref_axis',(0.,-0.5,0.866025403784439));
#397=DIRECTION('',(1.,0.,0.));
#398=DIRECTION('center_axis',(0.,-0.866025403784439,0.5));
#399=DIRECTION('ref_axis',(0.,-0.5,-0.866025403784439));
#400=DIRECTION('',(1.,0.,0.));
#401=DIRECTION('center_axis',(0.,-3.20493781063927E-16,1.));
#402=DIRECTION('ref_axis',(0.,-1.,-3.20493781063927E-16));
#403=DIRECTION('center_axis',(1.,0.,0.));
#404=DIRECTION('ref_axis',(0.,0.,-1.));
#405=CARTESIAN_POINT('',(0.,0.,0.));
#406=CARTESIAN_POINT('Origin',(-6.375,0.,0.));
#407=CARTESIAN_POINT('',(-6.5,1.40834381901946E-16,1.15));
#408=CARTESIAN_POINT('Origin',(-6.5,0.,0.));
#409=CARTESIAN_POINT('',(-6.25,-1.10218211923262E-16,0.9));
#410=CARTESIAN_POINT('',(-6.375,1.25526296912604E-16,1.025));
#411=CARTESIAN_POINT('',(-6.25,-1.10218211923262E-16,-0.9));
#412=CARTESIAN_POINT('Origin',(-6.25,0.,0.));
#413=CARTESIAN_POINT('Origin',(-6.25,0.,0.));
#414=CARTESIAN_POINT('Origin',(-6.5,0.,5.55111512312578E-16));
#415=CARTESIAN_POINT('',(-6.5,-3.24531401774049E-16,2.65));
#416=CARTESIAN_POINT('Origin',(-6.5,0.,0.));
#417=CARTESIAN_POINT('Origin',(-0.499999999999999,0.,0.));
#418=CARTESIAN_POINT('',(5.5,-1.10218211923262E-16,-0.9));
#419=CARTESIAN_POINT('',(-0.499999999999999,-1.10218211923262E-16,-0.9));
#420=CARTESIAN_POINT('Origin',(5.5,0.,0.));
#421=CARTESIAN_POINT('Origin',(-6.375,0.,0.));
#422=CARTESIAN_POINT('',(-6.25,3.55147571752732E-16,2.9));
#423=CARTESIAN_POINT('',(-6.375,3.3983948676339E-16,2.775));
#424=CARTESIAN_POINT('Origin',(-6.25,0.,0.));
#425=CARTESIAN_POINT('Origin',(-6.5,0.,0.));
#426=CARTESIAN_POINT('',(-1.51,5.55111512312578E-16,2.9));
#427=CARTESIAN_POINT('',(-6.5,-3.55147571752732E-16,2.9));
#428=CARTESIAN_POINT('Origin',(-1.51,0.,0.));
#429=CARTESIAN_POINT('Origin',(-3.5,0.,0.));
#430=CARTESIAN_POINT('',(6.5,-0.499999999999989,6.12323399573665E-17));
#431=CARTESIAN_POINT('Origin',(6.5,0.,0.));
#432=CARTESIAN_POINT('',(3.53589838486223,-3.46410161513776,-2.03830008427275E-16));
#433=CARTESIAN_POINT('',(-3.5,-10.5,1.28587913910472E-15));
#434=CARTESIAN_POINT('',(3.53589838486223,-1.73205080756888,-3.));
#435=CARTESIAN_POINT('Ctrl Pts',(3.53589838486223,-1.73205080756888,-3.));
#436=CARTESIAN_POINT('Ctrl Pts',(4.40192378862277,-2.59807621136356,-1.49999999998226));
#437=CARTESIAN_POINT('Ctrl Pts',(3.53589838486223,-3.46410161513776,-2.03830008427275E-16));
#438=CARTESIAN_POINT('',(3.53589838486223,1.73205080756888,-3.00000000000001));
#439=CARTESIAN_POINT('Ctrl Pts',(3.53589838486223,1.73205080756888,-3.00000000000001));
#440=CARTESIAN_POINT('Ctrl Pts',(4.40192378862276,-2.04924965885311E-11,
-3.));
#441=CARTESIAN_POINT('Ctrl Pts',(3.53589838486223,-1.73205080756888,-3.));
#442=CARTESIAN_POINT('',(3.53589838486223,3.46410161513776,-1.52980926537705E-15));
#443=CARTESIAN_POINT('Ctrl Pts',(3.53589838486223,3.46410161513776,-1.52980926537705E-15));
#444=CARTESIAN_POINT('Ctrl Pts',(4.40192378862275,2.59807621134307,-1.50000000001776));
#445=CARTESIAN_POINT('Ctrl Pts',(3.53589838486223,1.73205080756888,-3.00000000000001));
#446=CARTESIAN_POINT('',(3.53589838486223,1.73205080756888,3.00000000000001));
#447=CARTESIAN_POINT('Ctrl Pts',(3.53589838486223,1.73205080756888,3.00000000000001));
#448=CARTESIAN_POINT('Ctrl Pts',(4.40192378862276,2.59807621136357,1.49999999998225));
#449=CARTESIAN_POINT('Ctrl Pts',(3.53589838486223,3.46410161513776,-1.52980926537705E-15));
#450=CARTESIAN_POINT('',(3.53589838486223,-1.73205080756888,3.00000000000001));
#451=CARTESIAN_POINT('Ctrl Pts',(3.53589838486223,-1.73205080756888,3.00000000000001));
#452=CARTESIAN_POINT('Ctrl Pts',(4.40192378862276,2.04913863655065E-11,
3.));
#453=CARTESIAN_POINT('Ctrl Pts',(3.53589838486223,1.73205080756888,3.00000000000001));
#454=CARTESIAN_POINT('Ctrl Pts',(3.53589838486223,-3.46410161513776,-2.03830008427275E-16));
#455=CARTESIAN_POINT('Ctrl Pts',(4.40192378862276,-2.59807621134307,1.50000000001775));
#456=CARTESIAN_POINT('Ctrl Pts',(3.53589838486223,-1.73205080756888,3.00000000000001));
#457=CARTESIAN_POINT('Origin',(0.,1.73205080756888,-3.00000000000001));
#458=CARTESIAN_POINT('',(-1.51,1.73205080756888,-3.00000000000001));
#459=CARTESIAN_POINT('',(0.,1.73205080756888,-3.00000000000001));
#460=CARTESIAN_POINT('',(-1.51,3.46410161513776,-1.52980926537705E-15));
#461=CARTESIAN_POINT('',(-1.51,2.1650635094611,-2.25000000000001));
#462=CARTESIAN_POINT('',(0.,3.46410161513776,-1.52980926537705E-15));
#463=CARTESIAN_POINT('Origin',(0.,-1.73205080756888,-3.00000000000001));
#464=CARTESIAN_POINT('',(-1.51,-1.73205080756888,-3.00000000000001));
#465=CARTESIAN_POINT('',(0.,-1.73205080756888,-3.00000000000001));
#466=CARTESIAN_POINT('',(-1.51,-0.866025403784441,-3.00000000000001));
#467=CARTESIAN_POINT('Origin',(0.,-3.46410161513776,-1.52872506320456E-16));
#468=CARTESIAN_POINT('',(-1.51,-3.46410161513776,-2.03830008427275E-16));
#469=CARTESIAN_POINT('',(0.,-3.46410161513776,-2.03830008427275E-16));
#470=CARTESIAN_POINT('',(-1.51,-3.03108891324554,-0.750000000000002));
#471=CARTESIAN_POINT('Origin',(5.75,0.,0.));
#472=CARTESIAN_POINT('',(6.,2.44929359829471E-17,-0.2));
#473=CARTESIAN_POINT('Origin',(6.,0.,0.));
#474=CARTESIAN_POINT('',(5.5,-8.57252759403147E-17,-0.7));
#475=CARTESIAN_POINT('',(5.75,5.51091059616309E-17,-0.45));
#476=CARTESIAN_POINT('Origin',(5.5,0.,0.));
#477=CARTESIAN_POINT('Origin',(5.5,0.,0.));
#478=CARTESIAN_POINT('Origin',(9.40597372058688,0.,0.));
#479=CARTESIAN_POINT('',(6.5,-2.44929359829471E-17,-0.2));
#480=CARTESIAN_POINT('',(9.40597372058688,-2.44929359829471E-17,-0.2));
#481=CARTESIAN_POINT('Origin',(6.5,0.,0.));
#482=CARTESIAN_POINT('Origin',(-1.51,-2.77555756156289E-16,2.77555756156289E-16));
#483=CARTESIAN_POINT('',(-1.51,-1.73205080756888,3.00000000000001));
#484=CARTESIAN_POINT('',(-1.51,-2.1650635094611,2.25));
#485=CARTESIAN_POINT('',(-1.51,1.73205080756888,3.00000000000001));
#486=CARTESIAN_POINT('',(-1.51,0.86602540378444,3.00000000000001));
#487=CARTESIAN_POINT('',(-1.51,3.03108891324554,0.750000000000001));
#488=CARTESIAN_POINT('Origin',(0.,3.46410161513776,-1.56369058326722E-15));
#489=CARTESIAN_POINT('',(0.,1.73205080756888,3.00000000000001));
#490=CARTESIAN_POINT('Origin',(0.,-1.73205080756888,3.00000000000001));
#491=CARTESIAN_POINT('',(0.,-1.73205080756888,3.00000000000001));
#492=CARTESIAN_POINT('Origin',(0.,1.73205080756888,3.00000000000001));
#493=CARTESIAN_POINT('Origin',(6.5,0.,5.55111512312578E-16));
#494=UNCERTAINTY_MEASURE_WITH_UNIT(LENGTH_MEASURE(0.01),#498,
'DISTANCE_ACCURACY_VALUE',
'Maximum model space distance between geometric entities at asserted c
onnectivities');
#495=UNCERTAINTY_MEASURE_WITH_UNIT(LENGTH_MEASURE(0.01),#498,
'DISTANCE_ACCURACY_VALUE',
'Maximum model space distance between geometric entities at asserted c
onnectivities');
#496=(
GEOMETRIC_REPRESENTATION_CONTEXT(3)
GLOBAL_UNCERTAINTY_ASSIGNED_CONTEXT((#494))
GLOBAL_UNIT_ASSIGNED_CONTEXT((#498,#500,#501))
REPRESENTATION_CONTEXT('','3D')
);
#497=(
GEOMETRIC_REPRESENTATION_CONTEXT(3)
GLOBAL_UNCERTAINTY_ASSIGNED_CONTEXT((#495))
GLOBAL_UNIT_ASSIGNED_CONTEXT((#498,#500,#501))
REPRESENTATION_CONTEXT('','3D')
);
#498=(
LENGTH_UNIT()
NAMED_UNIT(*)
SI_UNIT(.MILLI.,.METRE.)
);
#499=(
LENGTH_UNIT()
NAMED_UNIT(*)
SI_UNIT(.CENTI.,.METRE.)
);
#500=(
NAMED_UNIT(*)
PLANE_ANGLE_UNIT()
SI_UNIT($,.RADIAN.)
);
#501=(
NAMED_UNIT(*)
SI_UNIT($,.STERADIAN.)
SOLID_ANGLE_UNIT()
);
#502=SHAPE_DEFINITION_REPRESENTATION(#503,#504);
#503=PRODUCT_DEFINITION_SHAPE('',$,#506);
#504=SHAPE_REPRESENTATION('',(#299),#496);
#505=PRODUCT_DEFINITION_CONTEXT('part definition',#510,'design');
#506=PRODUCT_DEFINITION('MK8 NOZZELS (M6.2.0.2-0.4)',
'MK8 NOZZELS (M6.2.0.2-0.4)',#507,#505);
#507=PRODUCT_DEFINITION_FORMATION('',$,#512);
#508=PRODUCT_RELATED_PRODUCT_CATEGORY('MK8 NOZZELS (M6.2.0.2-0.4)',
'MK8 NOZZELS (M6.2.0.2-0.4)',(#512));
#509=APPLICATION_PROTOCOL_DEFINITION('international standard',
'automotive_design',2009,#510);
#510=APPLICATION_CONTEXT(
'Core Data for Automotive Mechanical Design Process');
#511=PRODUCT_CONTEXT('part definition',#510,'mechanical');
#512=PRODUCT('MK8 NOZZELS (M6.2.0.2-0.4)','MK8 NOZZELS (M6.2.0.2-0.4)',
$,(#511));
#513=PRESENTATION_STYLE_ASSIGNMENT((#514));
#514=SURFACE_STYLE_USAGE(.BOTH.,#517);
#515=SURFACE_STYLE_RENDERING_WITH_PROPERTIES($,#521,(#516));
#516=SURFACE_STYLE_TRANSPARENT(0.);
#517=SURFACE_SIDE_STYLE('',(#518,#515));
#518=SURFACE_STYLE_FILL_AREA(#519);
#519=FILL_AREA_STYLE('',(#520));
#520=FILL_AREA_STYLE_COLOUR('',#521);
#521=COLOUR_RGB('',0.796078431372549,0.603921568627451,0.231372549019608);
ENDSEC;
END-ISO-10303-21;
