ISO-10303-21;
HEADER;
/* Generated by software containing ST-Developer
 * from STEP Tools, Inc. (www.steptools.com) 
 */

FILE_DESCRIPTION(
/* description */ (''),
/* implementation_level */ '2;1');

FILE_NAME(
/* name */ 'NOZZLE THROAT (M6.30).stp',
/* time_stamp */ '2023-03-01T15:16:15+02:00',
/* author */ ('arnold.brand'),
/* organization */ (''),
/* preprocessor_version */ 'ST-DEVELOPER v19.2',
/* originating_system */ 'Autodesk Inventor 2023',
/* authorisation */ '');

FILE_SCHEMA (('AUTOMOTIVE_DESIGN { 1 0 10303 214 3 1 1 }'));
ENDSEC;

DATA;
#10=MECHANICAL_DESIGN_GEOMETRIC_PRESENTATION_REPRESENTATION('',(#13),#274);
#11=SHAPE_REPRESENTATION_RELATIONSHIP('SRR','None',#281,#12);
#12=ADVANCED_BREP_SHAPE_REPRESENTATION('',(#14),#273);
#13=STYLED_ITEM('',(#290),#14);
#14=MANIFOLD_SOLID_BREP('Solid3',#142);
#15=FACE_BOUND('',#36,.T.);
#16=FACE_BOUND('',#39,.T.);
#17=FACE_BOUND('',#43,.T.);
#18=PLANE('',#172);
#19=PLANE('',#176);
#20=PLANE('',#182);
#21=CYLINDRICAL_SURFACE('',#169,3.);
#22=CYLINDRICAL_SURFACE('',#180,0.9);
#23=CYLINDRICAL_SURFACE('',#184,2.);
#24=FACE_OUTER_BOUND('',#33,.T.);
#25=FACE_OUTER_BOUND('',#34,.T.);
#26=FACE_OUTER_BOUND('',#35,.T.);
#27=FACE_OUTER_BOUND('',#37,.T.);
#28=FACE_OUTER_BOUND('',#38,.T.);
#29=FACE_OUTER_BOUND('',#40,.T.);
#30=FACE_OUTER_BOUND('',#41,.T.);
#31=FACE_OUTER_BOUND('',#42,.T.);
#32=FACE_OUTER_BOUND('',#44,.T.);
#33=EDGE_LOOP('',(#96,#97,#98,#99,#100));
#34=EDGE_LOOP('',(#101,#102,#103,#104,#105,#106));
#35=EDGE_LOOP('',(#107));
#36=EDGE_LOOP('',(#108));
#37=EDGE_LOOP('',(#109,#110,#111,#112,#113));
#38=EDGE_LOOP('',(#114));
#39=EDGE_LOOP('',(#115));
#40=EDGE_LOOP('',(#116,#117,#118,#119));
#41=EDGE_LOOP('',(#120,#121,#122,#123));
#42=EDGE_LOOP('',(#124));
#43=EDGE_LOOP('',(#125));
#44=EDGE_LOOP('',(#126,#127,#128,#129));
#45=LINE('',#240,#51);
#46=LINE('',#247,#52);
#47=LINE('',#254,#53);
#48=LINE('',#260,#54);
#49=LINE('',#265,#55);
#50=LINE('',#270,#56);
#51=VECTOR('',#193,2.875);
#52=VECTOR('',#202,3.);
#53=VECTOR('',#211,2.875);
#54=VECTOR('',#218,1.4);
#55=VECTOR('',#225,0.9);
#56=VECTOR('',#232,2.);
#57=CIRCLE('',#166,3.);
#58=CIRCLE('',#167,3.);
#59=CIRCLE('',#168,2.75);
#60=CIRCLE('',#170,3.);
#61=CIRCLE('',#171,3.);
#62=CIRCLE('',#173,1.9);
#63=CIRCLE('',#175,2.75);
#64=CIRCLE('',#177,2.);
#65=CIRCLE('',#179,0.9);
#66=CIRCLE('',#181,0.9);
#67=CIRCLE('',#183,2.);
#68=VERTEX_POINT('',#235);
#69=VERTEX_POINT('',#236);
#70=VERTEX_POINT('',#239);
#71=VERTEX_POINT('',#243);
#72=VERTEX_POINT('',#244);
#73=VERTEX_POINT('',#249);
#74=VERTEX_POINT('',#252);
#75=VERTEX_POINT('',#256);
#76=VERTEX_POINT('',#259);
#77=VERTEX_POINT('',#263);
#78=VERTEX_POINT('',#267);
#79=EDGE_CURVE('',#68,#69,#57,.T.);
#80=EDGE_CURVE('',#69,#68,#58,.T.);
#81=EDGE_CURVE('',#68,#70,#45,.T.);
#82=EDGE_CURVE('',#70,#70,#59,.T.);
#83=EDGE_CURVE('',#71,#72,#60,.T.);
#84=EDGE_CURVE('',#72,#71,#61,.T.);
#85=EDGE_CURVE('',#72,#69,#46,.T.);
#86=EDGE_CURVE('',#73,#73,#62,.T.);
#87=EDGE_CURVE('',#74,#74,#63,.T.);
#88=EDGE_CURVE('',#74,#71,#47,.T.);
#89=EDGE_CURVE('',#75,#75,#64,.T.);
#90=EDGE_CURVE('',#73,#76,#48,.T.);
#91=EDGE_CURVE('',#76,#76,#65,.T.);
#92=EDGE_CURVE('',#77,#77,#66,.T.);
#93=EDGE_CURVE('',#77,#76,#49,.T.);
#94=EDGE_CURVE('',#78,#78,#67,.T.);
#95=EDGE_CURVE('',#75,#78,#50,.T.);
#96=ORIENTED_EDGE('',*,*,#79,.T.);
#97=ORIENTED_EDGE('',*,*,#80,.T.);
#98=ORIENTED_EDGE('',*,*,#81,.T.);
#99=ORIENTED_EDGE('',*,*,#82,.T.);
#100=ORIENTED_EDGE('',*,*,#81,.F.);
#101=ORIENTED_EDGE('',*,*,#83,.F.);
#102=ORIENTED_EDGE('',*,*,#84,.F.);
#103=ORIENTED_EDGE('',*,*,#85,.T.);
#104=ORIENTED_EDGE('',*,*,#79,.F.);
#105=ORIENTED_EDGE('',*,*,#80,.F.);
#106=ORIENTED_EDGE('',*,*,#85,.F.);
#107=ORIENTED_EDGE('',*,*,#82,.F.);
#108=ORIENTED_EDGE('',*,*,#86,.F.);
#109=ORIENTED_EDGE('',*,*,#87,.T.);
#110=ORIENTED_EDGE('',*,*,#88,.T.);
#111=ORIENTED_EDGE('',*,*,#83,.T.);
#112=ORIENTED_EDGE('',*,*,#84,.T.);
#113=ORIENTED_EDGE('',*,*,#88,.F.);
#114=ORIENTED_EDGE('',*,*,#87,.F.);
#115=ORIENTED_EDGE('',*,*,#89,.T.);
#116=ORIENTED_EDGE('',*,*,#86,.T.);
#117=ORIENTED_EDGE('',*,*,#90,.T.);
#118=ORIENTED_EDGE('',*,*,#91,.T.);
#119=ORIENTED_EDGE('',*,*,#90,.F.);
#120=ORIENTED_EDGE('',*,*,#92,.T.);
#121=ORIENTED_EDGE('',*,*,#93,.T.);
#122=ORIENTED_EDGE('',*,*,#91,.F.);
#123=ORIENTED_EDGE('',*,*,#93,.F.);
#124=ORIENTED_EDGE('',*,*,#94,.T.);
#125=ORIENTED_EDGE('',*,*,#92,.F.);
#126=ORIENTED_EDGE('',*,*,#89,.F.);
#127=ORIENTED_EDGE('',*,*,#95,.T.);
#128=ORIENTED_EDGE('',*,*,#94,.F.);
#129=ORIENTED_EDGE('',*,*,#95,.F.);
#130=CONICAL_SURFACE('',#165,2.875,0.785398163397449);
#131=CONICAL_SURFACE('',#174,2.875,0.785398163397451);
#132=CONICAL_SURFACE('',#178,1.4,0.785398163397448);
#133=ADVANCED_FACE('',(#24),#130,.T.);
#134=ADVANCED_FACE('',(#25),#21,.T.);
#135=ADVANCED_FACE('',(#26,#15),#18,.F.);
#136=ADVANCED_FACE('',(#27),#131,.T.);
#137=ADVANCED_FACE('',(#28,#16),#19,.T.);
#138=ADVANCED_FACE('',(#29),#132,.F.);
#139=ADVANCED_FACE('',(#30),#22,.F.);
#140=ADVANCED_FACE('',(#31,#17),#20,.T.);
#141=ADVANCED_FACE('',(#32),#23,.F.);
#142=CLOSED_SHELL('',(#133,#134,#135,#136,#137,#138,#139,#140,#141));
#143=DERIVED_UNIT_ELEMENT(#146,1.);
#144=DERIVED_UNIT_ELEMENT(#276,-3.);
#145=DIMENSIONAL_EXPONENTS(0.,1.,0.,0.,0.,0.,0.);
#146=(
CONVERSION_BASED_UNIT('gram',#148)
MASS_UNIT()
NAMED_UNIT(#145)
);
#147=(
MASS_UNIT()
NAMED_UNIT(*)
SI_UNIT(.KILO.,.GRAM.)
);
#148=MASS_MEASURE_WITH_UNIT(MASS_MEASURE(0.001),#147);
#149=DERIVED_UNIT((#143,#144));
#150=MEASURE_REPRESENTATION_ITEM('density measure',
POSITIVE_RATIO_MEASURE(7.85),#149);
#151=PROPERTY_DEFINITION_REPRESENTATION(#156,#153);
#152=PROPERTY_DEFINITION_REPRESENTATION(#157,#154);
#153=REPRESENTATION('material name',(#155),#273);
#154=REPRESENTATION('density',(#150),#273);
#155=DESCRIPTIVE_REPRESENTATION_ITEM('Steel, Mild','Steel, Mild');
#156=PROPERTY_DEFINITION('material property','material name',#283);
#157=PROPERTY_DEFINITION('material property','density of part',#283);
#158=DATE_TIME_ROLE('creation_date');
#159=APPLIED_DATE_AND_TIME_ASSIGNMENT(#160,#158,(#283));
#160=DATE_AND_TIME(#161,#162);
#161=CALENDAR_DATE(2023,14,2);
#162=LOCAL_TIME(0,0,0.,#163);
#163=COORDINATED_UNIVERSAL_TIME_OFFSET(0,0,.BEHIND.);
#164=AXIS2_PLACEMENT_3D('',#233,#185,#186);
#165=AXIS2_PLACEMENT_3D('',#234,#187,#188);
#166=AXIS2_PLACEMENT_3D('',#237,#189,#190);
#167=AXIS2_PLACEMENT_3D('',#238,#191,#192);
#168=AXIS2_PLACEMENT_3D('',#241,#194,#195);
#169=AXIS2_PLACEMENT_3D('',#242,#196,#197);
#170=AXIS2_PLACEMENT_3D('',#245,#198,#199);
#171=AXIS2_PLACEMENT_3D('',#246,#200,#201);
#172=AXIS2_PLACEMENT_3D('',#248,#203,#204);
#173=AXIS2_PLACEMENT_3D('',#250,#205,#206);
#174=AXIS2_PLACEMENT_3D('',#251,#207,#208);
#175=AXIS2_PLACEMENT_3D('',#253,#209,#210);
#176=AXIS2_PLACEMENT_3D('',#255,#212,#213);
#177=AXIS2_PLACEMENT_3D('',#257,#214,#215);
#178=AXIS2_PLACEMENT_3D('',#258,#216,#217);
#179=AXIS2_PLACEMENT_3D('',#261,#219,#220);
#180=AXIS2_PLACEMENT_3D('',#262,#221,#222);
#181=AXIS2_PLACEMENT_3D('',#264,#223,#224);
#182=AXIS2_PLACEMENT_3D('',#266,#226,#227);
#183=AXIS2_PLACEMENT_3D('',#268,#228,#229);
#184=AXIS2_PLACEMENT_3D('',#269,#230,#231);
#185=DIRECTION('axis',(0.,0.,1.));
#186=DIRECTION('refdir',(1.,0.,0.));
#187=DIRECTION('center_axis',(0.,0.,1.));
#188=DIRECTION('ref_axis',(-1.,0.,0.));
#189=DIRECTION('center_axis',(0.,0.,-1.));
#190=DIRECTION('ref_axis',(-1.,0.,0.));
#191=DIRECTION('center_axis',(0.,0.,-1.));
#192=DIRECTION('ref_axis',(-1.,0.,0.));
#193=DIRECTION('',(-0.707106781186548,-8.65956056235494E-17,-0.707106781186547));
#194=DIRECTION('center_axis',(0.,0.,1.));
#195=DIRECTION('ref_axis',(-1.,0.,0.));
#196=DIRECTION('center_axis',(0.,0.,1.));
#197=DIRECTION('ref_axis',(1.,0.,0.));
#198=DIRECTION('center_axis',(0.,0.,1.));
#199=DIRECTION('ref_axis',(-1.,0.,0.));
#200=DIRECTION('center_axis',(0.,0.,1.));
#201=DIRECTION('ref_axis',(-1.,0.,0.));
#202=DIRECTION('',(0.,0.,-1.));
#203=DIRECTION('center_axis',(0.,0.,1.));
#204=DIRECTION('ref_axis',(1.,0.,0.));
#205=DIRECTION('center_axis',(0.,0.,-1.));
#206=DIRECTION('ref_axis',(1.,0.,0.));
#207=DIRECTION('center_axis',(0.,0.,-1.));
#208=DIRECTION('ref_axis',(-1.,0.,0.));
#209=DIRECTION('center_axis',(0.,0.,-1.));
#210=DIRECTION('ref_axis',(-1.,0.,0.));
#211=DIRECTION('',(0.707106781186549,8.65956056235495E-17,-0.707106781186546));
#212=DIRECTION('center_axis',(0.,0.,1.));
#213=DIRECTION('ref_axis',(1.,0.,0.));
#214=DIRECTION('center_axis',(0.,0.,-1.));
#215=DIRECTION('ref_axis',(1.,0.,0.));
#216=DIRECTION('center_axis',(0.,0.,-1.));
#217=DIRECTION('ref_axis',(1.,0.,0.));
#218=DIRECTION('',(0.707106781186547,-8.65956056235493E-17,0.707106781186547));
#219=DIRECTION('center_axis',(0.,0.,1.));
#220=DIRECTION('ref_axis',(1.,0.,0.));
#221=DIRECTION('center_axis',(0.,0.,1.));
#222=DIRECTION('ref_axis',(1.,0.,0.));
#223=DIRECTION('center_axis',(0.,0.,1.));
#224=DIRECTION('ref_axis',(1.,0.,0.));
#225=DIRECTION('',(0.,0.,-1.));
#226=DIRECTION('center_axis',(0.,0.,1.));
#227=DIRECTION('ref_axis',(1.,0.,0.));
#228=DIRECTION('center_axis',(0.,0.,1.));
#229=DIRECTION('ref_axis',(1.,0.,0.));
#230=DIRECTION('center_axis',(0.,0.,1.));
#231=DIRECTION('ref_axis',(1.,0.,0.));
#232=DIRECTION('',(0.,0.,-1.));
#233=CARTESIAN_POINT('',(0.,0.,0.));
#234=CARTESIAN_POINT('Origin',(0.,0.,0.125));
#235=CARTESIAN_POINT('',(3.,-3.67394039744206E-16,0.25));
#236=CARTESIAN_POINT('',(-3.,-3.67394039744206E-16,0.25));
#237=CARTESIAN_POINT('Origin',(0.,0.,0.25));
#238=CARTESIAN_POINT('Origin',(0.,0.,0.25));
#239=CARTESIAN_POINT('',(2.75,3.36777869765522E-16,0.));
#240=CARTESIAN_POINT('',(2.875,3.52085954754864E-16,0.125));
#241=CARTESIAN_POINT('Origin',(0.,0.,0.));
#242=CARTESIAN_POINT('Origin',(0.,0.,0.));
#243=CARTESIAN_POINT('',(3.,3.67394039744206E-16,29.75));
#244=CARTESIAN_POINT('',(-3.,-3.67394039744206E-16,29.75));
#245=CARTESIAN_POINT('Origin',(0.,0.,29.75));
#246=CARTESIAN_POINT('Origin',(0.,0.,29.75));
#247=CARTESIAN_POINT('',(-3.,-3.67394039744206E-16,0.));
#248=CARTESIAN_POINT('Origin',(0.,0.,0.));
#249=CARTESIAN_POINT('',(-1.9,2.32682891837997E-16,0.));
#250=CARTESIAN_POINT('Origin',(0.,0.,0.));
#251=CARTESIAN_POINT('Origin',(0.,0.,29.875));
#252=CARTESIAN_POINT('',(2.75,-3.36777869765522E-16,30.));
#253=CARTESIAN_POINT('Origin',(0.,0.,30.));
#254=CARTESIAN_POINT('',(2.875,3.52085954754864E-16,29.875));
#255=CARTESIAN_POINT('Origin',(0.,0.,30.));
#256=CARTESIAN_POINT('',(-2.,-2.44929359829471E-16,30.));
#257=CARTESIAN_POINT('Origin',(0.,0.,30.));
#258=CARTESIAN_POINT('Origin',(0.,0.,0.5));
#259=CARTESIAN_POINT('',(-0.9,-1.10218211923262E-16,1.));
#260=CARTESIAN_POINT('',(-1.4,1.71450551880629E-16,0.5));
#261=CARTESIAN_POINT('Origin',(0.,0.,1.));
#262=CARTESIAN_POINT('Origin',(0.,0.,-1.17691453623979));
#263=CARTESIAN_POINT('',(-0.9,-1.10218211923262E-16,3.));
#264=CARTESIAN_POINT('Origin',(0.,0.,3.));
#265=CARTESIAN_POINT('',(-0.9,-1.10218211923262E-16,-1.17691453623979));
#266=CARTESIAN_POINT('Origin',(0.,0.,3.));
#267=CARTESIAN_POINT('',(-2.,-2.44929359829471E-16,3.));
#268=CARTESIAN_POINT('Origin',(0.,0.,3.));
#269=CARTESIAN_POINT('Origin',(0.,0.,16.5));
#270=CARTESIAN_POINT('',(-2.,-2.44929359829471E-16,16.5));
#271=UNCERTAINTY_MEASURE_WITH_UNIT(LENGTH_MEASURE(0.01),#275,
'DISTANCE_ACCURACY_VALUE',
'Maximum model space distance between geometric entities at asserted c
onnectivities');
#272=UNCERTAINTY_MEASURE_WITH_UNIT(LENGTH_MEASURE(0.01),#275,
'DISTANCE_ACCURACY_VALUE',
'Maximum model space distance between geometric entities at asserted c
onnectivities');
#273=(
GEOMETRIC_REPRESENTATION_CONTEXT(3)
GLOBAL_UNCERTAINTY_ASSIGNED_CONTEXT((#271))
GLOBAL_UNIT_ASSIGNED_CONTEXT((#275,#277,#278))
REPRESENTATION_CONTEXT('','3D')
);
#274=(
GEOMETRIC_REPRESENTATION_CONTEXT(3)
GLOBAL_UNCERTAINTY_ASSIGNED_CONTEXT((#272))
GLOBAL_UNIT_ASSIGNED_CONTEXT((#275,#277,#278))
REPRESENTATION_CONTEXT('','3D')
);
#275=(
LENGTH_UNIT()
NAMED_UNIT(*)
SI_UNIT(.MILLI.,.METRE.)
);
#276=(
LENGTH_UNIT()
NAMED_UNIT(*)
SI_UNIT(.CENTI.,.METRE.)
);
#277=(
NAMED_UNIT(*)
PLANE_ANGLE_UNIT()
SI_UNIT($,.RADIAN.)
);
#278=(
NAMED_UNIT(*)
SI_UNIT($,.STERADIAN.)
SOLID_ANGLE_UNIT()
);
#279=SHAPE_DEFINITION_REPRESENTATION(#280,#281);
#280=PRODUCT_DEFINITION_SHAPE('',$,#283);
#281=SHAPE_REPRESENTATION('',(#164),#273);
#282=PRODUCT_DEFINITION_CONTEXT('part definition',#287,'design');
#283=PRODUCT_DEFINITION('NOZZLE THROAT (M6.30)','NOZZLE THROAT (M6.30)',
#284,#282);
#284=PRODUCT_DEFINITION_FORMATION('',$,#289);
#285=PRODUCT_RELATED_PRODUCT_CATEGORY('NOZZLE THROAT (M6.30)',
'NOZZLE THROAT (M6.30)',(#289));
#286=APPLICATION_PROTOCOL_DEFINITION('international standard',
'automotive_design',2009,#287);
#287=APPLICATION_CONTEXT(
'Core Data for Automotive Mechanical Design Process');
#288=PRODUCT_CONTEXT('part definition',#287,'mechanical');
#289=PRODUCT('NOZZLE THROAT (M6.30)','NOZZLE THROAT (M6.30)',$,(#288));
#290=PRESENTATION_STYLE_ASSIGNMENT((#291));
#291=SURFACE_STYLE_USAGE(.BOTH.,#294);
#292=SURFACE_STYLE_RENDERING_WITH_PROPERTIES($,#298,(#293));
#293=SURFACE_STYLE_TRANSPARENT(0.);
#294=SURFACE_SIDE_STYLE('',(#295,#292));
#295=SURFACE_STYLE_FILL_AREA(#296);
#296=FILL_AREA_STYLE('',(#297));
#297=FILL_AREA_STYLE_COLOUR('',#298);
#298=COLOUR_RGB('',0.87843137254902,0.874509803921569,0.858823529411765);
ENDSEC;
END-ISO-10303-21;
