ISO-10303-21;
HEADER;
/* Generated by software containing ST-Developer
 * from STEP Tools, Inc. (www.steptools.com) 
 */

FILE_DESCRIPTION(
/* description */ (''),
/* implementation_level */ '2;1');

FILE_NAME(
/* name */ 'SINGLE UNIVERSAL L BRACKET (20.20.14.5).stp',
/* time_stamp */ '2023-03-01T15:17:54+02:00',
/* author */ ('arnold.brand'),
/* organization */ (''),
/* preprocessor_version */ 'ST-DEVELOPER v19.2',
/* originating_system */ 'Autodesk Inventor 2023',
/* authorisation */ '');

FILE_SCHEMA (('AUTOMOTIVE_DESIGN { 1 0 10303 214 3 1 1 }'));
ENDSEC;

DATA;
#10=MECHANICAL_DESIGN_GEOMETRIC_PRESENTATION_REPRESENTATION('',(#13),#538);
#11=SHAPE_REPRESENTATION_RELATIONSHIP('SRR','None',#545,#12);
#12=ADVANCED_BREP_SHAPE_REPRESENTATION('',(#14),#537);
#13=STYLED_ITEM('',(#554),#14);
#14=MANIFOLD_SOLID_BREP('Solid3',#317);
#15=FACE_BOUND('',#56,.T.);
#16=FACE_BOUND('',#59,.T.);
#17=FACE_BOUND('',#61,.T.);
#18=FACE_BOUND('',#64,.T.);
#19=CIRCLE('',#342,2.75);
#20=CIRCLE('',#343,2.75);
#21=CIRCLE('',#346,2.75);
#22=CIRCLE('',#347,2.75);
#23=CIRCLE('',#350,2.75);
#24=CIRCLE('',#351,2.75);
#25=CIRCLE('',#354,2.75);
#26=CIRCLE('',#355,2.75);
#27=CYLINDRICAL_SURFACE('',#341,2.75);
#28=CYLINDRICAL_SURFACE('',#345,2.75);
#29=CYLINDRICAL_SURFACE('',#349,2.75);
#30=CYLINDRICAL_SURFACE('',#353,2.75);
#31=FACE_OUTER_BOUND('',#47,.T.);
#32=FACE_OUTER_BOUND('',#48,.T.);
#33=FACE_OUTER_BOUND('',#49,.T.);
#34=FACE_OUTER_BOUND('',#50,.T.);
#35=FACE_OUTER_BOUND('',#51,.T.);
#36=FACE_OUTER_BOUND('',#52,.T.);
#37=FACE_OUTER_BOUND('',#53,.T.);
#38=FACE_OUTER_BOUND('',#54,.T.);
#39=FACE_OUTER_BOUND('',#55,.T.);
#40=FACE_OUTER_BOUND('',#57,.T.);
#41=FACE_OUTER_BOUND('',#58,.T.);
#42=FACE_OUTER_BOUND('',#60,.T.);
#43=FACE_OUTER_BOUND('',#62,.T.);
#44=FACE_OUTER_BOUND('',#63,.T.);
#45=FACE_OUTER_BOUND('',#65,.T.);
#46=FACE_OUTER_BOUND('',#66,.T.);
#47=EDGE_LOOP('',(#205,#206,#207,#208));
#48=EDGE_LOOP('',(#209,#210,#211,#212));
#49=EDGE_LOOP('',(#213,#214,#215,#216));
#50=EDGE_LOOP('',(#217,#218,#219,#220));
#51=EDGE_LOOP('',(#221,#222,#223,#224));
#52=EDGE_LOOP('',(#225,#226,#227,#228));
#53=EDGE_LOOP('',(#229,#230,#231,#232));
#54=EDGE_LOOP('',(#233,#234,#235,#236));
#55=EDGE_LOOP('',(#237,#238,#239,#240));
#56=EDGE_LOOP('',(#241,#242,#243,#244));
#57=EDGE_LOOP('',(#245,#246,#247,#248));
#58=EDGE_LOOP('',(#249,#250,#251,#252));
#59=EDGE_LOOP('',(#253,#254,#255,#256));
#60=EDGE_LOOP('',(#257,#258,#259,#260));
#61=EDGE_LOOP('',(#261,#262,#263,#264));
#62=EDGE_LOOP('',(#265,#266,#267,#268));
#63=EDGE_LOOP('',(#269,#270,#271,#272));
#64=EDGE_LOOP('',(#273,#274,#275,#276));
#65=EDGE_LOOP('',(#277,#278,#279,#280,#281,#282));
#66=EDGE_LOOP('',(#283,#284,#285,#286,#287,#288));
#67=LINE('',#452,#101);
#68=LINE('',#454,#102);
#69=LINE('',#456,#103);
#70=LINE('',#457,#104);
#71=LINE('',#463,#105);
#72=LINE('',#466,#106);
#73=LINE('',#468,#107);
#74=LINE('',#469,#108);
#75=LINE('',#476,#109);
#76=LINE('',#478,#110);
#77=LINE('',#480,#111);
#78=LINE('',#481,#112);
#79=LINE('',#487,#113);
#80=LINE('',#490,#114);
#81=LINE('',#492,#115);
#82=LINE('',#493,#116);
#83=LINE('',#500,#117);
#84=LINE('',#502,#118);
#85=LINE('',#504,#119);
#86=LINE('',#505,#120);
#87=LINE('',#508,#121);
#88=LINE('',#510,#122);
#89=LINE('',#511,#123);
#90=LINE('',#514,#124);
#91=LINE('',#516,#125);
#92=LINE('',#517,#126);
#93=LINE('',#520,#127);
#94=LINE('',#522,#128);
#95=LINE('',#523,#129);
#96=LINE('',#526,#130);
#97=LINE('',#528,#131);
#98=LINE('',#529,#132);
#99=LINE('',#531,#133);
#100=LINE('',#532,#134);
#101=VECTOR('',#368,10.);
#102=VECTOR('',#369,10.);
#103=VECTOR('',#370,10.);
#104=VECTOR('',#371,10.);
#105=VECTOR('',#378,10.);
#106=VECTOR('',#381,10.);
#107=VECTOR('',#382,10.);
#108=VECTOR('',#383,10.);
#109=VECTOR('',#392,10.);
#110=VECTOR('',#393,10.);
#111=VECTOR('',#394,10.);
#112=VECTOR('',#395,10.);
#113=VECTOR('',#402,10.);
#114=VECTOR('',#405,10.);
#115=VECTOR('',#406,10.);
#116=VECTOR('',#407,10.);
#117=VECTOR('',#416,10.);
#118=VECTOR('',#417,10.);
#119=VECTOR('',#418,10.);
#120=VECTOR('',#419,10.);
#121=VECTOR('',#422,10.);
#122=VECTOR('',#423,10.);
#123=VECTOR('',#424,10.);
#124=VECTOR('',#427,10.);
#125=VECTOR('',#428,10.);
#126=VECTOR('',#429,10.);
#127=VECTOR('',#432,10.);
#128=VECTOR('',#433,10.);
#129=VECTOR('',#434,10.);
#130=VECTOR('',#437,10.);
#131=VECTOR('',#438,10.);
#132=VECTOR('',#439,10.);
#133=VECTOR('',#442,10.);
#134=VECTOR('',#443,10.);
#135=VERTEX_POINT('',#450);
#136=VERTEX_POINT('',#451);
#137=VERTEX_POINT('',#453);
#138=VERTEX_POINT('',#455);
#139=VERTEX_POINT('',#459);
#140=VERTEX_POINT('',#461);
#141=VERTEX_POINT('',#465);
#142=VERTEX_POINT('',#467);
#143=VERTEX_POINT('',#474);
#144=VERTEX_POINT('',#475);
#145=VERTEX_POINT('',#477);
#146=VERTEX_POINT('',#479);
#147=VERTEX_POINT('',#483);
#148=VERTEX_POINT('',#485);
#149=VERTEX_POINT('',#489);
#150=VERTEX_POINT('',#491);
#151=VERTEX_POINT('',#498);
#152=VERTEX_POINT('',#499);
#153=VERTEX_POINT('',#501);
#154=VERTEX_POINT('',#503);
#155=VERTEX_POINT('',#507);
#156=VERTEX_POINT('',#509);
#157=VERTEX_POINT('',#513);
#158=VERTEX_POINT('',#515);
#159=VERTEX_POINT('',#519);
#160=VERTEX_POINT('',#521);
#161=VERTEX_POINT('',#525);
#162=VERTEX_POINT('',#527);
#163=EDGE_CURVE('',#135,#136,#67,.T.);
#164=EDGE_CURVE('',#137,#135,#68,.T.);
#165=EDGE_CURVE('',#138,#137,#69,.T.);
#166=EDGE_CURVE('',#138,#136,#70,.T.);
#167=EDGE_CURVE('',#136,#139,#19,.T.);
#168=EDGE_CURVE('',#140,#138,#20,.T.);
#169=EDGE_CURVE('',#140,#139,#71,.T.);
#170=EDGE_CURVE('',#139,#141,#72,.T.);
#171=EDGE_CURVE('',#142,#140,#73,.T.);
#172=EDGE_CURVE('',#142,#141,#74,.T.);
#173=EDGE_CURVE('',#141,#135,#21,.T.);
#174=EDGE_CURVE('',#137,#142,#22,.T.);
#175=EDGE_CURVE('',#143,#144,#75,.T.);
#176=EDGE_CURVE('',#145,#143,#76,.T.);
#177=EDGE_CURVE('',#146,#145,#77,.T.);
#178=EDGE_CURVE('',#146,#144,#78,.T.);
#179=EDGE_CURVE('',#144,#147,#23,.T.);
#180=EDGE_CURVE('',#148,#146,#24,.T.);
#181=EDGE_CURVE('',#148,#147,#79,.T.);
#182=EDGE_CURVE('',#147,#149,#80,.T.);
#183=EDGE_CURVE('',#150,#148,#81,.T.);
#184=EDGE_CURVE('',#150,#149,#82,.T.);
#185=EDGE_CURVE('',#149,#143,#25,.T.);
#186=EDGE_CURVE('',#145,#150,#26,.T.);
#187=EDGE_CURVE('',#151,#152,#83,.T.);
#188=EDGE_CURVE('',#152,#153,#84,.T.);
#189=EDGE_CURVE('',#154,#153,#85,.T.);
#190=EDGE_CURVE('',#151,#154,#86,.T.);
#191=EDGE_CURVE('',#155,#151,#87,.T.);
#192=EDGE_CURVE('',#156,#154,#88,.T.);
#193=EDGE_CURVE('',#155,#156,#89,.T.);
#194=EDGE_CURVE('',#157,#155,#90,.T.);
#195=EDGE_CURVE('',#158,#156,#91,.T.);
#196=EDGE_CURVE('',#157,#158,#92,.T.);
#197=EDGE_CURVE('',#159,#157,#93,.T.);
#198=EDGE_CURVE('',#160,#158,#94,.T.);
#199=EDGE_CURVE('',#159,#160,#95,.T.);
#200=EDGE_CURVE('',#161,#159,#96,.T.);
#201=EDGE_CURVE('',#162,#160,#97,.T.);
#202=EDGE_CURVE('',#161,#162,#98,.T.);
#203=EDGE_CURVE('',#152,#161,#99,.T.);
#204=EDGE_CURVE('',#153,#162,#100,.T.);
#205=ORIENTED_EDGE('',*,*,#163,.F.);
#206=ORIENTED_EDGE('',*,*,#164,.F.);
#207=ORIENTED_EDGE('',*,*,#165,.F.);
#208=ORIENTED_EDGE('',*,*,#166,.T.);
#209=ORIENTED_EDGE('',*,*,#167,.F.);
#210=ORIENTED_EDGE('',*,*,#166,.F.);
#211=ORIENTED_EDGE('',*,*,#168,.F.);
#212=ORIENTED_EDGE('',*,*,#169,.T.);
#213=ORIENTED_EDGE('',*,*,#170,.F.);
#214=ORIENTED_EDGE('',*,*,#169,.F.);
#215=ORIENTED_EDGE('',*,*,#171,.F.);
#216=ORIENTED_EDGE('',*,*,#172,.T.);
#217=ORIENTED_EDGE('',*,*,#173,.F.);
#218=ORIENTED_EDGE('',*,*,#172,.F.);
#219=ORIENTED_EDGE('',*,*,#174,.F.);
#220=ORIENTED_EDGE('',*,*,#164,.T.);
#221=ORIENTED_EDGE('',*,*,#175,.F.);
#222=ORIENTED_EDGE('',*,*,#176,.F.);
#223=ORIENTED_EDGE('',*,*,#177,.F.);
#224=ORIENTED_EDGE('',*,*,#178,.T.);
#225=ORIENTED_EDGE('',*,*,#179,.F.);
#226=ORIENTED_EDGE('',*,*,#178,.F.);
#227=ORIENTED_EDGE('',*,*,#180,.F.);
#228=ORIENTED_EDGE('',*,*,#181,.T.);
#229=ORIENTED_EDGE('',*,*,#182,.F.);
#230=ORIENTED_EDGE('',*,*,#181,.F.);
#231=ORIENTED_EDGE('',*,*,#183,.F.);
#232=ORIENTED_EDGE('',*,*,#184,.T.);
#233=ORIENTED_EDGE('',*,*,#185,.F.);
#234=ORIENTED_EDGE('',*,*,#184,.F.);
#235=ORIENTED_EDGE('',*,*,#186,.F.);
#236=ORIENTED_EDGE('',*,*,#176,.T.);
#237=ORIENTED_EDGE('',*,*,#187,.T.);
#238=ORIENTED_EDGE('',*,*,#188,.T.);
#239=ORIENTED_EDGE('',*,*,#189,.F.);
#240=ORIENTED_EDGE('',*,*,#190,.F.);
#241=ORIENTED_EDGE('',*,*,#183,.T.);
#242=ORIENTED_EDGE('',*,*,#180,.T.);
#243=ORIENTED_EDGE('',*,*,#177,.T.);
#244=ORIENTED_EDGE('',*,*,#186,.T.);
#245=ORIENTED_EDGE('',*,*,#191,.T.);
#246=ORIENTED_EDGE('',*,*,#190,.T.);
#247=ORIENTED_EDGE('',*,*,#192,.F.);
#248=ORIENTED_EDGE('',*,*,#193,.F.);
#249=ORIENTED_EDGE('',*,*,#194,.T.);
#250=ORIENTED_EDGE('',*,*,#193,.T.);
#251=ORIENTED_EDGE('',*,*,#195,.F.);
#252=ORIENTED_EDGE('',*,*,#196,.F.);
#253=ORIENTED_EDGE('',*,*,#182,.T.);
#254=ORIENTED_EDGE('',*,*,#185,.T.);
#255=ORIENTED_EDGE('',*,*,#175,.T.);
#256=ORIENTED_EDGE('',*,*,#179,.T.);
#257=ORIENTED_EDGE('',*,*,#197,.T.);
#258=ORIENTED_EDGE('',*,*,#196,.T.);
#259=ORIENTED_EDGE('',*,*,#198,.F.);
#260=ORIENTED_EDGE('',*,*,#199,.F.);
#261=ORIENTED_EDGE('',*,*,#170,.T.);
#262=ORIENTED_EDGE('',*,*,#173,.T.);
#263=ORIENTED_EDGE('',*,*,#163,.T.);
#264=ORIENTED_EDGE('',*,*,#167,.T.);
#265=ORIENTED_EDGE('',*,*,#200,.T.);
#266=ORIENTED_EDGE('',*,*,#199,.T.);
#267=ORIENTED_EDGE('',*,*,#201,.F.);
#268=ORIENTED_EDGE('',*,*,#202,.F.);
#269=ORIENTED_EDGE('',*,*,#203,.T.);
#270=ORIENTED_EDGE('',*,*,#202,.T.);
#271=ORIENTED_EDGE('',*,*,#204,.F.);
#272=ORIENTED_EDGE('',*,*,#188,.F.);
#273=ORIENTED_EDGE('',*,*,#171,.T.);
#274=ORIENTED_EDGE('',*,*,#168,.T.);
#275=ORIENTED_EDGE('',*,*,#165,.T.);
#276=ORIENTED_EDGE('',*,*,#174,.T.);
#277=ORIENTED_EDGE('',*,*,#204,.T.);
#278=ORIENTED_EDGE('',*,*,#201,.T.);
#279=ORIENTED_EDGE('',*,*,#198,.T.);
#280=ORIENTED_EDGE('',*,*,#195,.T.);
#281=ORIENTED_EDGE('',*,*,#192,.T.);
#282=ORIENTED_EDGE('',*,*,#189,.T.);
#283=ORIENTED_EDGE('',*,*,#203,.F.);
#284=ORIENTED_EDGE('',*,*,#187,.F.);
#285=ORIENTED_EDGE('',*,*,#191,.F.);
#286=ORIENTED_EDGE('',*,*,#194,.F.);
#287=ORIENTED_EDGE('',*,*,#197,.F.);
#288=ORIENTED_EDGE('',*,*,#200,.F.);
#289=PLANE('',#340);
#290=PLANE('',#344);
#291=PLANE('',#348);
#292=PLANE('',#352);
#293=PLANE('',#356);
#294=PLANE('',#357);
#295=PLANE('',#358);
#296=PLANE('',#359);
#297=PLANE('',#360);
#298=PLANE('',#361);
#299=PLANE('',#362);
#300=PLANE('',#363);
#301=ADVANCED_FACE('',(#31),#289,.F.);
#302=ADVANCED_FACE('',(#32),#27,.F.);
#303=ADVANCED_FACE('',(#33),#290,.F.);
#304=ADVANCED_FACE('',(#34),#28,.F.);
#305=ADVANCED_FACE('',(#35),#291,.F.);
#306=ADVANCED_FACE('',(#36),#29,.F.);
#307=ADVANCED_FACE('',(#37),#292,.F.);
#308=ADVANCED_FACE('',(#38),#30,.F.);
#309=ADVANCED_FACE('',(#39,#15),#293,.T.);
#310=ADVANCED_FACE('',(#40),#294,.T.);
#311=ADVANCED_FACE('',(#41,#16),#295,.T.);
#312=ADVANCED_FACE('',(#42,#17),#296,.T.);
#313=ADVANCED_FACE('',(#43),#297,.T.);
#314=ADVANCED_FACE('',(#44,#18),#298,.T.);
#315=ADVANCED_FACE('',(#45),#299,.T.);
#316=ADVANCED_FACE('',(#46),#300,.F.);
#317=CLOSED_SHELL('',(#301,#302,#303,#304,#305,#306,#307,#308,#309,#310,
#311,#312,#313,#314,#315,#316));
#318=DERIVED_UNIT_ELEMENT(#321,1.);
#319=DERIVED_UNIT_ELEMENT(#540,-3.);
#320=DIMENSIONAL_EXPONENTS(0.,1.,0.,0.,0.,0.,0.);
#321=(
CONVERSION_BASED_UNIT('gram',#323)
MASS_UNIT()
NAMED_UNIT(#320)
);
#322=(
MASS_UNIT()
NAMED_UNIT(*)
SI_UNIT(.KILO.,.GRAM.)
);
#323=MASS_MEASURE_WITH_UNIT(MASS_MEASURE(0.001),#322);
#324=DERIVED_UNIT((#318,#319));
#325=MEASURE_REPRESENTATION_ITEM('density measure',
POSITIVE_RATIO_MEASURE(7.85),#324);
#326=PROPERTY_DEFINITION_REPRESENTATION(#331,#328);
#327=PROPERTY_DEFINITION_REPRESENTATION(#332,#329);
#328=REPRESENTATION('material name',(#330),#537);
#329=REPRESENTATION('density',(#325),#537);
#330=DESCRIPTIVE_REPRESENTATION_ITEM('Steel, Mild','Steel, Mild');
#331=PROPERTY_DEFINITION('material property','material name',#547);
#332=PROPERTY_DEFINITION('material property','density of part',#547);
#333=DATE_TIME_ROLE('creation_date');
#334=APPLIED_DATE_AND_TIME_ASSIGNMENT(#335,#333,(#547));
#335=DATE_AND_TIME(#336,#337);
#336=CALENDAR_DATE(2023,27,2);
#337=LOCAL_TIME(0,0,0.,#338);
#338=COORDINATED_UNIVERSAL_TIME_OFFSET(0,0,.BEHIND.);
#339=AXIS2_PLACEMENT_3D('',#448,#364,#365);
#340=AXIS2_PLACEMENT_3D('',#449,#366,#367);
#341=AXIS2_PLACEMENT_3D('',#458,#372,#373);
#342=AXIS2_PLACEMENT_3D('',#460,#374,#375);
#343=AXIS2_PLACEMENT_3D('',#462,#376,#377);
#344=AXIS2_PLACEMENT_3D('',#464,#379,#380);
#345=AXIS2_PLACEMENT_3D('',#470,#384,#385);
#346=AXIS2_PLACEMENT_3D('',#471,#386,#387);
#347=AXIS2_PLACEMENT_3D('',#472,#388,#389);
#348=AXIS2_PLACEMENT_3D('',#473,#390,#391);
#349=AXIS2_PLACEMENT_3D('',#482,#396,#397);
#350=AXIS2_PLACEMENT_3D('',#484,#398,#399);
#351=AXIS2_PLACEMENT_3D('',#486,#400,#401);
#352=AXIS2_PLACEMENT_3D('',#488,#403,#404);
#353=AXIS2_PLACEMENT_3D('',#494,#408,#409);
#354=AXIS2_PLACEMENT_3D('',#495,#410,#411);
#355=AXIS2_PLACEMENT_3D('',#496,#412,#413);
#356=AXIS2_PLACEMENT_3D('',#497,#414,#415);
#357=AXIS2_PLACEMENT_3D('',#506,#420,#421);
#358=AXIS2_PLACEMENT_3D('',#512,#425,#426);
#359=AXIS2_PLACEMENT_3D('',#518,#430,#431);
#360=AXIS2_PLACEMENT_3D('',#524,#435,#436);
#361=AXIS2_PLACEMENT_3D('',#530,#440,#441);
#362=AXIS2_PLACEMENT_3D('',#533,#444,#445);
#363=AXIS2_PLACEMENT_3D('',#534,#446,#447);
#364=DIRECTION('axis',(0.,0.,1.));
#365=DIRECTION('refdir',(1.,0.,0.));
#366=DIRECTION('center_axis',(1.48029736616688E-16,0.,1.));
#367=DIRECTION('ref_axis',(0.,-1.,0.));
#368=DIRECTION('',(0.,1.,0.));
#369=DIRECTION('',(1.,0.,-1.48029736616688E-16));
#370=DIRECTION('',(0.,-1.,0.));
#371=DIRECTION('',(1.,0.,-1.48029736616688E-16));
#372=DIRECTION('center_axis',(1.,0.,-1.48029736616688E-16));
#373=DIRECTION('ref_axis',(1.48029736616688E-16,0.,1.));
#374=DIRECTION('center_axis',(-1.,0.,5.2245789394125E-16));
#375=DIRECTION('ref_axis',(1.48029736616688E-16,0.,1.));
#376=DIRECTION('center_axis',(1.,0.,-1.83697019872103E-16));
#377=DIRECTION('ref_axis',(1.48029736616688E-16,0.,1.));
#378=DIRECTION('',(1.,0.,-1.48029736616688E-16));
#379=DIRECTION('center_axis',(-1.48029736616688E-16,0.,-1.));
#380=DIRECTION('ref_axis',(0.,1.,0.));
#381=DIRECTION('',(0.,-1.,0.));
#382=DIRECTION('',(0.,1.,0.));
#383=DIRECTION('',(1.,0.,-1.48029736616688E-16));
#384=DIRECTION('center_axis',(1.,0.,-1.48029736616688E-16));
#385=DIRECTION('ref_axis',(-1.48029736616688E-16,-4.03717463500057E-16,
-1.));
#386=DIRECTION('center_axis',(-1.,0.,5.2245789394125E-16));
#387=DIRECTION('ref_axis',(-1.48029736616688E-16,-4.03717463500057E-16,
-1.));
#388=DIRECTION('center_axis',(1.,0.,-1.83697019872103E-16));
#389=DIRECTION('ref_axis',(-1.48029736616688E-16,-4.03717463500057E-16,
-1.));
#390=DIRECTION('center_axis',(-1.,0.,0.));
#391=DIRECTION('ref_axis',(0.,-1.,0.));
#392=DIRECTION('',(0.,1.,0.));
#393=DIRECTION('',(0.,0.,1.));
#394=DIRECTION('',(0.,-1.,0.));
#395=DIRECTION('',(0.,0.,1.));
#396=DIRECTION('center_axis',(0.,0.,1.));
#397=DIRECTION('ref_axis',(-1.,0.,0.));
#398=DIRECTION('center_axis',(-6.53072367426563E-16,0.,-1.));
#399=DIRECTION('ref_axis',(-1.,0.,0.));
#400=DIRECTION('center_axis',(0.,0.,1.));
#401=DIRECTION('ref_axis',(-1.,0.,0.));
#402=DIRECTION('',(0.,0.,1.));
#403=DIRECTION('center_axis',(1.,0.,0.));
#404=DIRECTION('ref_axis',(0.,1.,0.));
#405=DIRECTION('',(0.,-1.,0.));
#406=DIRECTION('',(0.,1.,0.));
#407=DIRECTION('',(0.,0.,1.));
#408=DIRECTION('center_axis',(0.,0.,1.));
#409=DIRECTION('ref_axis',(1.,0.,0.));
#410=DIRECTION('center_axis',(-6.53072367426563E-16,0.,-1.));
#411=DIRECTION('ref_axis',(1.,0.,0.));
#412=DIRECTION('center_axis',(0.,0.,1.));
#413=DIRECTION('ref_axis',(1.,0.,0.));
#414=DIRECTION('center_axis',(0.,0.,-1.));
#415=DIRECTION('ref_axis',(-1.,0.,0.));
#416=DIRECTION('',(-1.,0.,0.));
#417=DIRECTION('',(0.,1.,0.));
#418=DIRECTION('',(-1.,0.,0.));
#419=DIRECTION('',(0.,1.,0.));
#420=DIRECTION('center_axis',(1.,0.,0.));
#421=DIRECTION('ref_axis',(0.,0.,-1.));
#422=DIRECTION('',(0.,0.,-1.));
#423=DIRECTION('',(0.,0.,-1.));
#424=DIRECTION('',(0.,1.,0.));
#425=DIRECTION('center_axis',(6.53072367426563E-16,0.,1.));
#426=DIRECTION('ref_axis',(1.,0.,-6.53072367426563E-16));
#427=DIRECTION('',(1.,0.,-6.53072367426563E-16));
#428=DIRECTION('',(1.,0.,-6.53072367426563E-16));
#429=DIRECTION('',(0.,1.,0.));
#430=DIRECTION('center_axis',(1.,0.,-5.2245789394125E-16));
#431=DIRECTION('ref_axis',(-5.2245789394125E-16,0.,-1.));
#432=DIRECTION('',(-5.2245789394125E-16,0.,-1.));
#433=DIRECTION('',(-5.2245789394125E-16,0.,-1.));
#434=DIRECTION('',(0.,1.,0.));
#435=DIRECTION('center_axis',(0.,0.,1.));
#436=DIRECTION('ref_axis',(1.,0.,0.));
#437=DIRECTION('',(1.,0.,0.));
#438=DIRECTION('',(1.,0.,0.));
#439=DIRECTION('',(0.,1.,0.));
#440=DIRECTION('center_axis',(-1.,0.,1.83697019872103E-16));
#441=DIRECTION('ref_axis',(1.83697019872103E-16,0.,1.));
#442=DIRECTION('',(1.83697019872103E-16,0.,1.));
#443=DIRECTION('',(1.83697019872103E-16,0.,1.));
#444=DIRECTION('center_axis',(0.,1.,0.));
#445=DIRECTION('ref_axis',(0.,0.,1.));
#446=DIRECTION('center_axis',(0.,1.,0.));
#447=DIRECTION('ref_axis',(0.,0.,1.));
#448=CARTESIAN_POINT('',(0.,0.,0.));
#449=CARTESIAN_POINT('Origin',(2.38806125833734E-15,9.25,13.));
#450=CARTESIAN_POINT('',(3.,5.75,13.));
#451=CARTESIAN_POINT('',(3.,9.25,13.));
#452=CARTESIAN_POINT('',(3.,4.625,13.));
#453=CARTESIAN_POINT('',(2.38806125833734E-15,5.75,13.));
#454=CARTESIAN_POINT('',(2.38806125833734E-15,5.75,13.));
#455=CARTESIAN_POINT('',(2.38806125833734E-15,9.25,13.));
#456=CARTESIAN_POINT('',(2.38806125833734E-15,4.625,13.));
#457=CARTESIAN_POINT('',(2.38806125833734E-15,9.25,13.));
#458=CARTESIAN_POINT('Origin',(1.88289445368906E-15,9.25,10.25));
#459=CARTESIAN_POINT('',(3.,9.25,7.5));
#460=CARTESIAN_POINT('Origin',(3.,9.25,10.25));
#461=CARTESIAN_POINT('',(1.37772764904077E-15,9.25,7.5));
#462=CARTESIAN_POINT('Origin',(1.51730480032105E-15,9.25,10.25));
#463=CARTESIAN_POINT('',(1.37772764904077E-15,9.25,7.5));
#464=CARTESIAN_POINT('Origin',(1.37772764904077E-15,5.75,7.5));
#465=CARTESIAN_POINT('',(3.,5.75,7.5));
#466=CARTESIAN_POINT('',(3.,2.875,7.5));
#467=CARTESIAN_POINT('',(1.37772764904077E-15,5.75,7.5));
#468=CARTESIAN_POINT('',(1.37772764904077E-15,2.875,7.5));
#469=CARTESIAN_POINT('',(1.37772764904077E-15,5.75,7.5));
#470=CARTESIAN_POINT('Origin',(1.88289445368906E-15,5.75,10.25));
#471=CARTESIAN_POINT('Origin',(3.,5.75,10.25));
#472=CARTESIAN_POINT('Origin',(1.51730480032105E-15,5.75,10.25));
#473=CARTESIAN_POINT('Origin',(12.5,9.25,0.));
#474=CARTESIAN_POINT('',(12.5,5.75,3.));
#475=CARTESIAN_POINT('',(12.5,9.25,3.));
#476=CARTESIAN_POINT('',(12.5,4.625,3.));
#477=CARTESIAN_POINT('',(12.5,5.75,0.));
#478=CARTESIAN_POINT('',(12.5,5.75,0.));
#479=CARTESIAN_POINT('',(12.5,9.25,0.));
#480=CARTESIAN_POINT('',(12.5,4.625,0.));
#481=CARTESIAN_POINT('',(12.5,9.25,0.));
#482=CARTESIAN_POINT('Origin',(15.25,9.25,0.));
#483=CARTESIAN_POINT('',(18.,9.25,3.));
#484=CARTESIAN_POINT('Origin',(15.25,9.25,3.00000000000001));
#485=CARTESIAN_POINT('',(18.,9.25,0.));
#486=CARTESIAN_POINT('Origin',(15.25,9.25,0.));
#487=CARTESIAN_POINT('',(18.,9.25,0.));
#488=CARTESIAN_POINT('Origin',(18.,5.75,0.));
#489=CARTESIAN_POINT('',(18.,5.75,3.));
#490=CARTESIAN_POINT('',(18.,2.875,3.));
#491=CARTESIAN_POINT('',(18.,5.75,0.));
#492=CARTESIAN_POINT('',(18.,2.875,0.));
#493=CARTESIAN_POINT('',(18.,5.75,0.));
#494=CARTESIAN_POINT('Origin',(15.25,5.75,0.));
#495=CARTESIAN_POINT('Origin',(15.25,5.75,3.00000000000001));
#496=CARTESIAN_POINT('Origin',(15.25,5.75,0.));
#497=CARTESIAN_POINT('Origin',(20.,0.,0.));
#498=CARTESIAN_POINT('',(20.,0.,0.));
#499=CARTESIAN_POINT('',(0.,0.,0.));
#500=CARTESIAN_POINT('',(20.,0.,0.));
#501=CARTESIAN_POINT('',(0.,15.,0.));
#502=CARTESIAN_POINT('',(0.,0.,0.));
#503=CARTESIAN_POINT('',(20.,15.,0.));
#504=CARTESIAN_POINT('',(20.,15.,0.));
#505=CARTESIAN_POINT('',(20.,0.,0.));
#506=CARTESIAN_POINT('Origin',(20.,0.,2.99999999999999));
#507=CARTESIAN_POINT('',(20.,0.,2.99999999999999));
#508=CARTESIAN_POINT('',(20.,0.,2.99999999999999));
#509=CARTESIAN_POINT('',(20.,15.,2.99999999999999));
#510=CARTESIAN_POINT('',(20.,15.,2.99999999999999));
#511=CARTESIAN_POINT('',(20.,0.,2.99999999999999));
#512=CARTESIAN_POINT('Origin',(3.,0.,3.00000000000001));
#513=CARTESIAN_POINT('',(3.,0.,3.00000000000001));
#514=CARTESIAN_POINT('',(3.,0.,3.00000000000001));
#515=CARTESIAN_POINT('',(3.,15.,3.00000000000001));
#516=CARTESIAN_POINT('',(3.,15.,3.00000000000001));
#517=CARTESIAN_POINT('',(3.,0.,3.00000000000001));
#518=CARTESIAN_POINT('Origin',(3.,0.,20.));
#519=CARTESIAN_POINT('',(3.,0.,20.));
#520=CARTESIAN_POINT('',(3.,0.,20.));
#521=CARTESIAN_POINT('',(3.,15.,20.));
#522=CARTESIAN_POINT('',(3.,15.,20.));
#523=CARTESIAN_POINT('',(3.,0.,20.));
#524=CARTESIAN_POINT('Origin',(3.67394039744206E-15,0.,20.));
#525=CARTESIAN_POINT('',(3.67394039744206E-15,0.,20.));
#526=CARTESIAN_POINT('',(3.67394039744206E-15,0.,20.));
#527=CARTESIAN_POINT('',(3.67394039744206E-15,15.,20.));
#528=CARTESIAN_POINT('',(3.67394039744206E-15,15.,20.));
#529=CARTESIAN_POINT('',(3.67394039744206E-15,0.,20.));
#530=CARTESIAN_POINT('Origin',(0.,0.,0.));
#531=CARTESIAN_POINT('',(0.,0.,0.));
#532=CARTESIAN_POINT('',(0.,15.,0.));
#533=CARTESIAN_POINT('Origin',(10.,15.,10.));
#534=CARTESIAN_POINT('Origin',(10.,0.,10.));
#535=UNCERTAINTY_MEASURE_WITH_UNIT(LENGTH_MEASURE(0.01),#539,
'DISTANCE_ACCURACY_VALUE',
'Maximum model space distance between geometric entities at asserted c
onnectivities');
#536=UNCERTAINTY_MEASURE_WITH_UNIT(LENGTH_MEASURE(0.01),#539,
'DISTANCE_ACCURACY_VALUE',
'Maximum model space distance between geometric entities at asserted c
onnectivities');
#537=(
GEOMETRIC_REPRESENTATION_CONTEXT(3)
GLOBAL_UNCERTAINTY_ASSIGNED_CONTEXT((#535))
GLOBAL_UNIT_ASSIGNED_CONTEXT((#539,#541,#542))
REPRESENTATION_CONTEXT('','3D')
);
#538=(
GEOMETRIC_REPRESENTATION_CONTEXT(3)
GLOBAL_UNCERTAINTY_ASSIGNED_CONTEXT((#536))
GLOBAL_UNIT_ASSIGNED_CONTEXT((#539,#541,#542))
REPRESENTATION_CONTEXT('','3D')
);
#539=(
LENGTH_UNIT()
NAMED_UNIT(*)
SI_UNIT(.MILLI.,.METRE.)
);
#540=(
LENGTH_UNIT()
NAMED_UNIT(*)
SI_UNIT(.CENTI.,.METRE.)
);
#541=(
NAMED_UNIT(*)
PLANE_ANGLE_UNIT()
SI_UNIT($,.RADIAN.)
);
#542=(
NAMED_UNIT(*)
SI_UNIT($,.STERADIAN.)
SOLID_ANGLE_UNIT()
);
#543=SHAPE_DEFINITION_REPRESENTATION(#544,#545);
#544=PRODUCT_DEFINITION_SHAPE('',$,#547);
#545=SHAPE_REPRESENTATION('',(#339),#537);
#546=PRODUCT_DEFINITION_CONTEXT('part definition',#551,'design');
#547=PRODUCT_DEFINITION('SINGLE UNIVERSAL L BRACKET (20.20.14.5)',
'SINGLE UNIVERSAL L BRACKET (20.20.14.5)',#548,#546);
#548=PRODUCT_DEFINITION_FORMATION('',$,#553);
#549=PRODUCT_RELATED_PRODUCT_CATEGORY(
'SINGLE UNIVERSAL L BRACKET (20.20.14.5)',
'SINGLE UNIVERSAL L BRACKET (20.20.14.5)',(#553));
#550=APPLICATION_PROTOCOL_DEFINITION('international standard',
'automotive_design',2009,#551);
#551=APPLICATION_CONTEXT(
'Core Data for Automotive Mechanical Design Process');
#552=PRODUCT_CONTEXT('part definition',#551,'mechanical');
#553=PRODUCT('SINGLE UNIVERSAL L BRACKET (20.20.14.5)',
'SINGLE UNIVERSAL L BRACKET (20.20.14.5)',$,(#552));
#554=PRESENTATION_STYLE_ASSIGNMENT((#555));
#555=SURFACE_STYLE_USAGE(.BOTH.,#558);
#556=SURFACE_STYLE_RENDERING_WITH_PROPERTIES($,#562,(#557));
#557=SURFACE_STYLE_TRANSPARENT(0.);
#558=SURFACE_SIDE_STYLE('',(#559,#556));
#559=SURFACE_STYLE_FILL_AREA(#560);
#560=FILL_AREA_STYLE('',(#561));
#561=FILL_AREA_STYLE_COLOUR('',#562);
#562=COLOUR_RGB('',0.87843137254902,0.874509803921569,0.858823529411765);
ENDSEC;
END-ISO-10303-21;
