ISO-10303-21;
HEADER;
/* Generated by software containing ST-Developer
 * from STEP Tools, Inc. (www.steptools.com) 
 */

FILE_DESCRIPTION(
/* description */ (''),
/* implementation_level */ '2;1');

FILE_NAME(
/* name */ 'THREE-WAY CORNER CUBE CONNECTOR (20.20.20).stp',
/* time_stamp */ '2023-03-01T15:17:39+02:00',
/* author */ ('arnold.brand'),
/* organization */ (''),
/* preprocessor_version */ 'ST-DEVELOPER v19.2',
/* originating_system */ 'Autodesk Inventor 2023',
/* authorisation */ '');

FILE_SCHEMA (('AUTOMOTIVE_DESIGN { 1 0 10303 214 3 1 1 }'));
ENDSEC;

DATA;
#10=MECHANICAL_DESIGN_GEOMETRIC_PRESENTATION_REPRESENTATION('',(#13),#651);
#11=SHAPE_REPRESENTATION_RELATIONSHIP('SRR','None',#658,#12);
#12=ADVANCED_BREP_SHAPE_REPRESENTATION('',(#14),#650);
#13=STYLED_ITEM('',(#667),#14);
#14=MANIFOLD_SOLID_BREP('Solid3',#359);
#15=FACE_BOUND('',#53,.T.);
#16=FACE_BOUND('',#59,.T.);
#17=FACE_BOUND('',#63,.T.);
#18=FACE_BOUND('',#67,.T.);
#19=FACE_BOUND('',#69,.T.);
#20=FACE_BOUND('',#71,.T.);
#21=FACE_BOUND('',#73,.T.);
#22=FACE_BOUND('',#75,.T.);
#23=FACE_BOUND('',#77,.T.);
#24=PLANE('',#389);
#25=PLANE('',#409);
#26=PLANE('',#417);
#27=PLANE('',#423);
#28=PLANE('',#424);
#29=PLANE('',#425);
#30=PLANE('',#426);
#31=PLANE('',#427);
#32=PLANE('',#428);
#33=FACE_OUTER_BOUND('',#51,.T.);
#34=FACE_OUTER_BOUND('',#52,.T.);
#35=FACE_OUTER_BOUND('',#54,.T.);
#36=FACE_OUTER_BOUND('',#55,.T.);
#37=FACE_OUTER_BOUND('',#56,.T.);
#38=FACE_OUTER_BOUND('',#57,.T.);
#39=FACE_OUTER_BOUND('',#58,.T.);
#40=FACE_OUTER_BOUND('',#60,.T.);
#41=FACE_OUTER_BOUND('',#61,.T.);
#42=FACE_OUTER_BOUND('',#62,.T.);
#43=FACE_OUTER_BOUND('',#64,.T.);
#44=FACE_OUTER_BOUND('',#65,.T.);
#45=FACE_OUTER_BOUND('',#66,.T.);
#46=FACE_OUTER_BOUND('',#68,.T.);
#47=FACE_OUTER_BOUND('',#70,.T.);
#48=FACE_OUTER_BOUND('',#72,.T.);
#49=FACE_OUTER_BOUND('',#74,.T.);
#50=FACE_OUTER_BOUND('',#76,.T.);
#51=EDGE_LOOP('',(#232,#233,#234,#235,#236,#237,#238,#239));
#52=EDGE_LOOP('',(#240));
#53=EDGE_LOOP('',(#241));
#54=EDGE_LOOP('',(#242,#243,#244,#245,#246,#247,#248,#249));
#55=EDGE_LOOP('',(#250,#251,#252,#253));
#56=EDGE_LOOP('',(#254,#255,#256,#257,#258,#259,#260,#261,#262));
#57=EDGE_LOOP('',(#263,#264,#265,#266,#267,#268,#269,#270));
#58=EDGE_LOOP('',(#271));
#59=EDGE_LOOP('',(#272));
#60=EDGE_LOOP('',(#273,#274,#275,#276,#277,#278,#279,#280,#281,#282,#283));
#61=EDGE_LOOP('',(#284,#285,#286,#287));
#62=EDGE_LOOP('',(#288));
#63=EDGE_LOOP('',(#289));
#64=EDGE_LOOP('',(#290,#291,#292,#293,#294,#295,#296,#297));
#65=EDGE_LOOP('',(#298,#299,#300,#301));
#66=EDGE_LOOP('',(#302,#303,#304,#305));
#67=EDGE_LOOP('',(#306));
#68=EDGE_LOOP('',(#307,#308,#309,#310));
#69=EDGE_LOOP('',(#311));
#70=EDGE_LOOP('',(#312,#313,#314,#315));
#71=EDGE_LOOP('',(#316));
#72=EDGE_LOOP('',(#317,#318,#319,#320));
#73=EDGE_LOOP('',(#321));
#74=EDGE_LOOP('',(#322,#323,#324,#325));
#75=EDGE_LOOP('',(#326));
#76=EDGE_LOOP('',(#327,#328,#329,#330));
#77=EDGE_LOOP('',(#331));
#78=ELLIPSE('',#384,7.77817459305202,5.5);
#79=ELLIPSE('',#385,7.77817459305202,5.5);
#80=ELLIPSE('',#386,7.77817459305202,5.5);
#81=ELLIPSE('',#387,7.77817459305202,5.5);
#82=ELLIPSE('',#388,7.77817459305202,5.5);
#83=ELLIPSE('',#393,7.77817459305202,5.5);
#84=ELLIPSE('',#394,7.77817459305202,5.5);
#85=ELLIPSE('',#395,7.77817459305202,5.5);
#86=ELLIPSE('',#396,7.77817459305202,5.5);
#87=ELLIPSE('',#397,7.77817459305202,5.5);
#88=ELLIPSE('',#402,7.77817459305202,5.5);
#89=ELLIPSE('',#403,7.77817459305202,5.5);
#90=ELLIPSE('',#404,7.77817459305202,5.5);
#91=ELLIPSE('',#405,7.77817459305202,5.5);
#92=ELLIPSE('',#408,7.77817459305202,5.5);
#93=ELLIPSE('',#413,7.77817459305202,5.5);
#94=ELLIPSE('',#414,7.77817459305202,5.5);
#95=LINE('',#551,#116);
#96=LINE('',#577,#117);
#97=LINE('',#580,#118);
#98=LINE('',#586,#119);
#99=LINE('',#595,#120);
#100=LINE('',#606,#121);
#101=LINE('',#609,#122);
#102=LINE('',#617,#123);
#103=LINE('',#620,#124);
#104=LINE('',#625,#125);
#105=LINE('',#627,#126);
#106=LINE('',#629,#127);
#107=LINE('',#630,#128);
#108=LINE('',#633,#129);
#109=LINE('',#635,#130);
#110=LINE('',#636,#131);
#111=LINE('',#639,#132);
#112=LINE('',#640,#133);
#113=LINE('',#643,#134);
#114=LINE('',#644,#135);
#115=LINE('',#646,#136);
#116=VECTOR('',#435,5.5);
#117=VECTOR('',#464,5.5);
#118=VECTOR('',#467,3.5);
#119=VECTOR('',#474,5.5);
#120=VECTOR('',#487,5.5);
#121=VECTOR('',#502,5.5);
#122=VECTOR('',#505,3.5);
#123=VECTOR('',#516,5.5);
#124=VECTOR('',#519,3.5);
#125=VECTOR('',#524,10.);
#126=VECTOR('',#525,10.);
#127=VECTOR('',#526,10.);
#128=VECTOR('',#527,10.);
#129=VECTOR('',#530,10.);
#130=VECTOR('',#531,10.);
#131=VECTOR('',#532,10.);
#132=VECTOR('',#535,10.);
#133=VECTOR('',#536,10.);
#134=VECTOR('',#539,10.);
#135=VECTOR('',#540,10.);
#136=VECTOR('',#543,10.);
#137=CIRCLE('',#383,5.5);
#138=CIRCLE('',#390,5.5);
#139=CIRCLE('',#391,3.5);
#140=CIRCLE('',#399,3.5);
#141=CIRCLE('',#401,5.5);
#142=CIRCLE('',#407,5.5);
#143=CIRCLE('',#410,5.5);
#144=CIRCLE('',#411,3.5);
#145=CIRCLE('',#416,3.5);
#146=CIRCLE('',#418,5.5);
#147=CIRCLE('',#419,3.5);
#148=CIRCLE('',#422,3.5);
#149=VERTEX_POINT('',#548);
#150=VERTEX_POINT('',#550);
#151=VERTEX_POINT('',#552);
#152=VERTEX_POINT('',#554);
#153=VERTEX_POINT('',#556);
#154=VERTEX_POINT('',#558);
#155=VERTEX_POINT('',#562);
#156=VERTEX_POINT('',#564);
#157=VERTEX_POINT('',#567);
#158=VERTEX_POINT('',#568);
#159=VERTEX_POINT('',#570);
#160=VERTEX_POINT('',#572);
#161=VERTEX_POINT('',#574);
#162=VERTEX_POINT('',#579);
#163=VERTEX_POINT('',#583);
#164=VERTEX_POINT('',#585);
#165=VERTEX_POINT('',#588);
#166=VERTEX_POINT('',#593);
#167=VERTEX_POINT('',#598);
#168=VERTEX_POINT('',#600);
#169=VERTEX_POINT('',#603);
#170=VERTEX_POINT('',#608);
#171=VERTEX_POINT('',#612);
#172=VERTEX_POINT('',#614);
#173=VERTEX_POINT('',#619);
#174=VERTEX_POINT('',#623);
#175=VERTEX_POINT('',#624);
#176=VERTEX_POINT('',#626);
#177=VERTEX_POINT('',#628);
#178=VERTEX_POINT('',#632);
#179=VERTEX_POINT('',#634);
#180=VERTEX_POINT('',#638);
#181=VERTEX_POINT('',#642);
#182=EDGE_CURVE('',#149,#149,#137,.T.);
#183=EDGE_CURVE('',#149,#150,#95,.T.);
#184=EDGE_CURVE('',#151,#150,#78,.T.);
#185=EDGE_CURVE('',#152,#151,#79,.T.);
#186=EDGE_CURVE('',#153,#152,#80,.T.);
#187=EDGE_CURVE('',#154,#153,#81,.T.);
#188=EDGE_CURVE('',#150,#154,#82,.T.);
#189=EDGE_CURVE('',#155,#155,#138,.T.);
#190=EDGE_CURVE('',#156,#156,#139,.T.);
#191=EDGE_CURVE('',#157,#158,#83,.T.);
#192=EDGE_CURVE('',#159,#157,#84,.T.);
#193=EDGE_CURVE('',#160,#159,#85,.T.);
#194=EDGE_CURVE('',#161,#160,#86,.T.);
#195=EDGE_CURVE('',#158,#161,#87,.T.);
#196=EDGE_CURVE('',#158,#155,#96,.T.);
#197=EDGE_CURVE('',#156,#162,#97,.T.);
#198=EDGE_CURVE('',#162,#162,#140,.T.);
#199=EDGE_CURVE('',#163,#163,#141,.T.);
#200=EDGE_CURVE('',#163,#164,#98,.T.);
#201=EDGE_CURVE('',#164,#154,#88,.T.);
#202=EDGE_CURVE('',#153,#165,#89,.T.);
#203=EDGE_CURVE('',#165,#159,#90,.T.);
#204=EDGE_CURVE('',#157,#164,#91,.T.);
#205=EDGE_CURVE('',#166,#166,#142,.T.);
#206=EDGE_CURVE('',#166,#165,#99,.T.);
#207=EDGE_CURVE('',#160,#152,#92,.T.);
#208=EDGE_CURVE('',#167,#167,#143,.T.);
#209=EDGE_CURVE('',#168,#168,#144,.T.);
#210=EDGE_CURVE('',#169,#161,#93,.T.);
#211=EDGE_CURVE('',#151,#169,#94,.T.);
#212=EDGE_CURVE('',#164,#167,#100,.T.);
#213=EDGE_CURVE('',#168,#170,#101,.T.);
#214=EDGE_CURVE('',#170,#170,#145,.T.);
#215=EDGE_CURVE('',#171,#171,#146,.T.);
#216=EDGE_CURVE('',#172,#172,#147,.T.);
#217=EDGE_CURVE('',#169,#171,#102,.T.);
#218=EDGE_CURVE('',#172,#173,#103,.T.);
#219=EDGE_CURVE('',#173,#173,#148,.T.);
#220=EDGE_CURVE('',#174,#175,#104,.T.);
#221=EDGE_CURVE('',#175,#176,#105,.T.);
#222=EDGE_CURVE('',#176,#177,#106,.T.);
#223=EDGE_CURVE('',#177,#174,#107,.T.);
#224=EDGE_CURVE('',#178,#175,#108,.T.);
#225=EDGE_CURVE('',#179,#178,#109,.T.);
#226=EDGE_CURVE('',#176,#179,#110,.T.);
#227=EDGE_CURVE('',#180,#179,#111,.T.);
#228=EDGE_CURVE('',#177,#180,#112,.T.);
#229=EDGE_CURVE('',#181,#180,#113,.T.);
#230=EDGE_CURVE('',#174,#181,#114,.T.);
#231=EDGE_CURVE('',#178,#181,#115,.T.);
#232=ORIENTED_EDGE('',*,*,#182,.F.);
#233=ORIENTED_EDGE('',*,*,#183,.T.);
#234=ORIENTED_EDGE('',*,*,#184,.F.);
#235=ORIENTED_EDGE('',*,*,#185,.F.);
#236=ORIENTED_EDGE('',*,*,#186,.F.);
#237=ORIENTED_EDGE('',*,*,#187,.F.);
#238=ORIENTED_EDGE('',*,*,#188,.F.);
#239=ORIENTED_EDGE('',*,*,#183,.F.);
#240=ORIENTED_EDGE('',*,*,#189,.T.);
#241=ORIENTED_EDGE('',*,*,#190,.F.);
#242=ORIENTED_EDGE('',*,*,#191,.F.);
#243=ORIENTED_EDGE('',*,*,#192,.F.);
#244=ORIENTED_EDGE('',*,*,#193,.F.);
#245=ORIENTED_EDGE('',*,*,#194,.F.);
#246=ORIENTED_EDGE('',*,*,#195,.F.);
#247=ORIENTED_EDGE('',*,*,#196,.T.);
#248=ORIENTED_EDGE('',*,*,#189,.F.);
#249=ORIENTED_EDGE('',*,*,#196,.F.);
#250=ORIENTED_EDGE('',*,*,#190,.T.);
#251=ORIENTED_EDGE('',*,*,#197,.T.);
#252=ORIENTED_EDGE('',*,*,#198,.F.);
#253=ORIENTED_EDGE('',*,*,#197,.F.);
#254=ORIENTED_EDGE('',*,*,#199,.F.);
#255=ORIENTED_EDGE('',*,*,#200,.T.);
#256=ORIENTED_EDGE('',*,*,#201,.T.);
#257=ORIENTED_EDGE('',*,*,#187,.T.);
#258=ORIENTED_EDGE('',*,*,#202,.T.);
#259=ORIENTED_EDGE('',*,*,#203,.T.);
#260=ORIENTED_EDGE('',*,*,#192,.T.);
#261=ORIENTED_EDGE('',*,*,#204,.T.);
#262=ORIENTED_EDGE('',*,*,#200,.F.);
#263=ORIENTED_EDGE('',*,*,#205,.F.);
#264=ORIENTED_EDGE('',*,*,#206,.T.);
#265=ORIENTED_EDGE('',*,*,#202,.F.);
#266=ORIENTED_EDGE('',*,*,#186,.T.);
#267=ORIENTED_EDGE('',*,*,#207,.F.);
#268=ORIENTED_EDGE('',*,*,#193,.T.);
#269=ORIENTED_EDGE('',*,*,#203,.F.);
#270=ORIENTED_EDGE('',*,*,#206,.F.);
#271=ORIENTED_EDGE('',*,*,#208,.T.);
#272=ORIENTED_EDGE('',*,*,#209,.F.);
#273=ORIENTED_EDGE('',*,*,#191,.T.);
#274=ORIENTED_EDGE('',*,*,#195,.T.);
#275=ORIENTED_EDGE('',*,*,#210,.F.);
#276=ORIENTED_EDGE('',*,*,#211,.F.);
#277=ORIENTED_EDGE('',*,*,#184,.T.);
#278=ORIENTED_EDGE('',*,*,#188,.T.);
#279=ORIENTED_EDGE('',*,*,#201,.F.);
#280=ORIENTED_EDGE('',*,*,#212,.T.);
#281=ORIENTED_EDGE('',*,*,#208,.F.);
#282=ORIENTED_EDGE('',*,*,#212,.F.);
#283=ORIENTED_EDGE('',*,*,#204,.F.);
#284=ORIENTED_EDGE('',*,*,#209,.T.);
#285=ORIENTED_EDGE('',*,*,#213,.T.);
#286=ORIENTED_EDGE('',*,*,#214,.F.);
#287=ORIENTED_EDGE('',*,*,#213,.F.);
#288=ORIENTED_EDGE('',*,*,#215,.T.);
#289=ORIENTED_EDGE('',*,*,#216,.F.);
#290=ORIENTED_EDGE('',*,*,#194,.T.);
#291=ORIENTED_EDGE('',*,*,#207,.T.);
#292=ORIENTED_EDGE('',*,*,#185,.T.);
#293=ORIENTED_EDGE('',*,*,#211,.T.);
#294=ORIENTED_EDGE('',*,*,#217,.T.);
#295=ORIENTED_EDGE('',*,*,#215,.F.);
#296=ORIENTED_EDGE('',*,*,#217,.F.);
#297=ORIENTED_EDGE('',*,*,#210,.T.);
#298=ORIENTED_EDGE('',*,*,#216,.T.);
#299=ORIENTED_EDGE('',*,*,#218,.T.);
#300=ORIENTED_EDGE('',*,*,#219,.F.);
#301=ORIENTED_EDGE('',*,*,#218,.F.);
#302=ORIENTED_EDGE('',*,*,#220,.T.);
#303=ORIENTED_EDGE('',*,*,#221,.T.);
#304=ORIENTED_EDGE('',*,*,#222,.T.);
#305=ORIENTED_EDGE('',*,*,#223,.T.);
#306=ORIENTED_EDGE('',*,*,#219,.T.);
#307=ORIENTED_EDGE('',*,*,#224,.F.);
#308=ORIENTED_EDGE('',*,*,#225,.F.);
#309=ORIENTED_EDGE('',*,*,#226,.F.);
#310=ORIENTED_EDGE('',*,*,#221,.F.);
#311=ORIENTED_EDGE('',*,*,#205,.T.);
#312=ORIENTED_EDGE('',*,*,#226,.T.);
#313=ORIENTED_EDGE('',*,*,#227,.F.);
#314=ORIENTED_EDGE('',*,*,#228,.F.);
#315=ORIENTED_EDGE('',*,*,#222,.F.);
#316=ORIENTED_EDGE('',*,*,#198,.T.);
#317=ORIENTED_EDGE('',*,*,#228,.T.);
#318=ORIENTED_EDGE('',*,*,#229,.F.);
#319=ORIENTED_EDGE('',*,*,#230,.F.);
#320=ORIENTED_EDGE('',*,*,#223,.F.);
#321=ORIENTED_EDGE('',*,*,#214,.T.);
#322=ORIENTED_EDGE('',*,*,#230,.T.);
#323=ORIENTED_EDGE('',*,*,#231,.F.);
#324=ORIENTED_EDGE('',*,*,#224,.T.);
#325=ORIENTED_EDGE('',*,*,#220,.F.);
#326=ORIENTED_EDGE('',*,*,#182,.T.);
#327=ORIENTED_EDGE('',*,*,#231,.T.);
#328=ORIENTED_EDGE('',*,*,#229,.T.);
#329=ORIENTED_EDGE('',*,*,#227,.T.);
#330=ORIENTED_EDGE('',*,*,#225,.T.);
#331=ORIENTED_EDGE('',*,*,#199,.T.);
#332=CYLINDRICAL_SURFACE('',#382,5.5);
#333=CYLINDRICAL_SURFACE('',#392,5.5);
#334=CYLINDRICAL_SURFACE('',#398,3.5);
#335=CYLINDRICAL_SURFACE('',#400,5.5);
#336=CYLINDRICAL_SURFACE('',#406,5.5);
#337=CYLINDRICAL_SURFACE('',#412,5.5);
#338=CYLINDRICAL_SURFACE('',#415,3.5);
#339=CYLINDRICAL_SURFACE('',#420,5.5);
#340=CYLINDRICAL_SURFACE('',#421,3.5);
#341=ADVANCED_FACE('',(#33),#332,.F.);
#342=ADVANCED_FACE('',(#34,#15),#24,.T.);
#343=ADVANCED_FACE('',(#35),#333,.F.);
#344=ADVANCED_FACE('',(#36),#334,.F.);
#345=ADVANCED_FACE('',(#37),#335,.F.);
#346=ADVANCED_FACE('',(#38),#336,.F.);
#347=ADVANCED_FACE('',(#39,#16),#25,.T.);
#348=ADVANCED_FACE('',(#40),#337,.F.);
#349=ADVANCED_FACE('',(#41),#338,.F.);
#350=ADVANCED_FACE('',(#42,#17),#26,.T.);
#351=ADVANCED_FACE('',(#43),#339,.F.);
#352=ADVANCED_FACE('',(#44),#340,.F.);
#353=ADVANCED_FACE('',(#45,#18),#27,.T.);
#354=ADVANCED_FACE('',(#46,#19),#28,.T.);
#355=ADVANCED_FACE('',(#47,#20),#29,.T.);
#356=ADVANCED_FACE('',(#48,#21),#30,.T.);
#357=ADVANCED_FACE('',(#49,#22),#31,.T.);
#358=ADVANCED_FACE('',(#50,#23),#32,.T.);
#359=CLOSED_SHELL('',(#341,#342,#343,#344,#345,#346,#347,#348,#349,#350,
#351,#352,#353,#354,#355,#356,#357,#358));
#360=DERIVED_UNIT_ELEMENT(#363,1.);
#361=DERIVED_UNIT_ELEMENT(#653,-3.);
#362=DIMENSIONAL_EXPONENTS(0.,1.,0.,0.,0.,0.,0.);
#363=(
CONVERSION_BASED_UNIT('gram',#365)
MASS_UNIT()
NAMED_UNIT(#362)
);
#364=(
MASS_UNIT()
NAMED_UNIT(*)
SI_UNIT(.KILO.,.GRAM.)
);
#365=MASS_MEASURE_WITH_UNIT(MASS_MEASURE(0.001),#364);
#366=DERIVED_UNIT((#360,#361));
#367=MEASURE_REPRESENTATION_ITEM('density measure',
POSITIVE_RATIO_MEASURE(7.85),#366);
#368=PROPERTY_DEFINITION_REPRESENTATION(#373,#370);
#369=PROPERTY_DEFINITION_REPRESENTATION(#374,#371);
#370=REPRESENTATION('material name',(#372),#650);
#371=REPRESENTATION('density',(#367),#650);
#372=DESCRIPTIVE_REPRESENTATION_ITEM('Steel, Mild','Steel, Mild');
#373=PROPERTY_DEFINITION('material property','material name',#660);
#374=PROPERTY_DEFINITION('material property','density of part',#660);
#375=DATE_TIME_ROLE('creation_date');
#376=APPLIED_DATE_AND_TIME_ASSIGNMENT(#377,#375,(#660));
#377=DATE_AND_TIME(#378,#379);
#378=CALENDAR_DATE(2023,1,3);
#379=LOCAL_TIME(0,0,0.,#380);
#380=COORDINATED_UNIVERSAL_TIME_OFFSET(0,0,.BEHIND.);
#381=AXIS2_PLACEMENT_3D('',#546,#429,#430);
#382=AXIS2_PLACEMENT_3D('',#547,#431,#432);
#383=AXIS2_PLACEMENT_3D('',#549,#433,#434);
#384=AXIS2_PLACEMENT_3D('',#553,#436,#437);
#385=AXIS2_PLACEMENT_3D('',#555,#438,#439);
#386=AXIS2_PLACEMENT_3D('',#557,#440,#441);
#387=AXIS2_PLACEMENT_3D('',#559,#442,#443);
#388=AXIS2_PLACEMENT_3D('',#560,#444,#445);
#389=AXIS2_PLACEMENT_3D('',#561,#446,#447);
#390=AXIS2_PLACEMENT_3D('',#563,#448,#449);
#391=AXIS2_PLACEMENT_3D('',#565,#450,#451);
#392=AXIS2_PLACEMENT_3D('',#566,#452,#453);
#393=AXIS2_PLACEMENT_3D('',#569,#454,#455);
#394=AXIS2_PLACEMENT_3D('',#571,#456,#457);
#395=AXIS2_PLACEMENT_3D('',#573,#458,#459);
#396=AXIS2_PLACEMENT_3D('',#575,#460,#461);
#397=AXIS2_PLACEMENT_3D('',#576,#462,#463);
#398=AXIS2_PLACEMENT_3D('',#578,#465,#466);
#399=AXIS2_PLACEMENT_3D('',#581,#468,#469);
#400=AXIS2_PLACEMENT_3D('',#582,#470,#471);
#401=AXIS2_PLACEMENT_3D('',#584,#472,#473);
#402=AXIS2_PLACEMENT_3D('',#587,#475,#476);
#403=AXIS2_PLACEMENT_3D('',#589,#477,#478);
#404=AXIS2_PLACEMENT_3D('',#590,#479,#480);
#405=AXIS2_PLACEMENT_3D('',#591,#481,#482);
#406=AXIS2_PLACEMENT_3D('',#592,#483,#484);
#407=AXIS2_PLACEMENT_3D('',#594,#485,#486);
#408=AXIS2_PLACEMENT_3D('',#596,#488,#489);
#409=AXIS2_PLACEMENT_3D('',#597,#490,#491);
#410=AXIS2_PLACEMENT_3D('',#599,#492,#493);
#411=AXIS2_PLACEMENT_3D('',#601,#494,#495);
#412=AXIS2_PLACEMENT_3D('',#602,#496,#497);
#413=AXIS2_PLACEMENT_3D('',#604,#498,#499);
#414=AXIS2_PLACEMENT_3D('',#605,#500,#501);
#415=AXIS2_PLACEMENT_3D('',#607,#503,#504);
#416=AXIS2_PLACEMENT_3D('',#610,#506,#507);
#417=AXIS2_PLACEMENT_3D('',#611,#508,#509);
#418=AXIS2_PLACEMENT_3D('',#613,#510,#511);
#419=AXIS2_PLACEMENT_3D('',#615,#512,#513);
#420=AXIS2_PLACEMENT_3D('',#616,#514,#515);
#421=AXIS2_PLACEMENT_3D('',#618,#517,#518);
#422=AXIS2_PLACEMENT_3D('',#621,#520,#521);
#423=AXIS2_PLACEMENT_3D('',#622,#522,#523);
#424=AXIS2_PLACEMENT_3D('',#631,#528,#529);
#425=AXIS2_PLACEMENT_3D('',#637,#533,#534);
#426=AXIS2_PLACEMENT_3D('',#641,#537,#538);
#427=AXIS2_PLACEMENT_3D('',#645,#541,#542);
#428=AXIS2_PLACEMENT_3D('',#647,#544,#545);
#429=DIRECTION('axis',(0.,0.,1.));
#430=DIRECTION('refdir',(1.,0.,0.));
#431=DIRECTION('center_axis',(0.,1.,0.));
#432=DIRECTION('ref_axis',(1.,0.,0.));
#433=DIRECTION('center_axis',(0.,-1.,0.));
#434=DIRECTION('ref_axis',(1.,0.,0.));
#435=DIRECTION('',(0.,-1.,0.));
#436=DIRECTION('center_axis',(0.707106781186548,0.707106781186548,0.));
#437=DIRECTION('ref_axis',(0.707106781186548,-0.707106781186548,0.));
#438=DIRECTION('center_axis',(0.,0.707106781186548,0.707106781186548));
#439=DIRECTION('ref_axis',(0.,0.707106781186548,-0.707106781186548));
#440=DIRECTION('center_axis',(-0.707106781186548,0.707106781186548,0.));
#441=DIRECTION('ref_axis',(0.707106781186548,0.707106781186548,0.));
#442=DIRECTION('center_axis',(0.,0.707106781186548,-0.707106781186548));
#443=DIRECTION('ref_axis',(0.,-0.707106781186548,-0.707106781186548));
#444=DIRECTION('center_axis',(0.707106781186548,0.707106781186548,0.));
#445=DIRECTION('ref_axis',(0.707106781186548,-0.707106781186548,0.));
#446=DIRECTION('center_axis',(0.,1.,0.));
#447=DIRECTION('ref_axis',(1.,0.,0.));
#448=DIRECTION('center_axis',(0.,1.,0.));
#449=DIRECTION('ref_axis',(1.,0.,0.));
#450=DIRECTION('center_axis',(0.,1.,0.));
#451=DIRECTION('ref_axis',(1.,0.,0.));
#452=DIRECTION('center_axis',(0.,1.,0.));
#453=DIRECTION('ref_axis',(1.,0.,0.));
#454=DIRECTION('center_axis',(0.707106781186548,-0.707106781186548,0.));
#455=DIRECTION('ref_axis',(0.707106781186548,0.707106781186548,0.));
#456=DIRECTION('center_axis',(0.,-0.707106781186548,-0.707106781186548));
#457=DIRECTION('ref_axis',(0.,0.707106781186548,-0.707106781186548));
#458=DIRECTION('center_axis',(-0.707106781186548,-0.707106781186548,0.));
#459=DIRECTION('ref_axis',(0.707106781186548,-0.707106781186548,0.));
#460=DIRECTION('center_axis',(0.,-0.707106781186548,0.707106781186548));
#461=DIRECTION('ref_axis',(0.,-0.707106781186548,-0.707106781186548));
#462=DIRECTION('center_axis',(0.707106781186548,-0.707106781186548,0.));
#463=DIRECTION('ref_axis',(0.707106781186548,0.707106781186548,0.));
#464=DIRECTION('',(0.,-1.,0.));
#465=DIRECTION('center_axis',(0.,1.,0.));
#466=DIRECTION('ref_axis',(1.,0.,0.));
#467=DIRECTION('',(0.,-1.,0.));
#468=DIRECTION('center_axis',(0.,1.,0.));
#469=DIRECTION('ref_axis',(1.,0.,0.));
#470=DIRECTION('center_axis',(0.,0.,1.));
#471=DIRECTION('ref_axis',(1.,0.,0.));
#472=DIRECTION('center_axis',(0.,0.,-1.));
#473=DIRECTION('ref_axis',(1.,0.,0.));
#474=DIRECTION('',(0.,0.,-1.));
#475=DIRECTION('center_axis',(-0.707106781186548,0.,-0.707106781186548));
#476=DIRECTION('ref_axis',(0.707106781186548,0.,-0.707106781186548));
#477=DIRECTION('center_axis',(0.707106781186548,0.,-0.707106781186548));
#478=DIRECTION('ref_axis',(-0.707106781186548,0.,-0.707106781186548));
#479=DIRECTION('center_axis',(0.707106781186548,0.,-0.707106781186548));
#480=DIRECTION('ref_axis',(-0.707106781186548,0.,-0.707106781186548));
#481=DIRECTION('center_axis',(-0.707106781186548,0.,-0.707106781186548));
#482=DIRECTION('ref_axis',(0.707106781186548,0.,-0.707106781186548));
#483=DIRECTION('center_axis',(1.,0.,0.));
#484=DIRECTION('ref_axis',(0.,0.,-1.));
#485=DIRECTION('center_axis',(-1.,0.,0.));
#486=DIRECTION('ref_axis',(0.,0.,-1.));
#487=DIRECTION('',(-1.,0.,0.));
#488=DIRECTION('center_axis',(0.707106781186548,0.,0.707106781186548));
#489=DIRECTION('ref_axis',(0.707106781186548,0.,-0.707106781186548));
#490=DIRECTION('center_axis',(1.,0.,0.));
#491=DIRECTION('ref_axis',(0.,0.,-1.));
#492=DIRECTION('center_axis',(1.,0.,0.));
#493=DIRECTION('ref_axis',(0.,0.,-1.));
#494=DIRECTION('center_axis',(1.,0.,0.));
#495=DIRECTION('ref_axis',(0.,0.,-1.));
#496=DIRECTION('center_axis',(1.,0.,0.));
#497=DIRECTION('ref_axis',(0.,0.,-1.));
#498=DIRECTION('center_axis',(-0.707106781186548,0.,0.707106781186548));
#499=DIRECTION('ref_axis',(-0.707106781186548,0.,-0.707106781186548));
#500=DIRECTION('center_axis',(-0.707106781186548,0.,0.707106781186548));
#501=DIRECTION('ref_axis',(-0.707106781186548,0.,-0.707106781186548));
#502=DIRECTION('',(-1.,0.,0.));
#503=DIRECTION('center_axis',(1.,0.,0.));
#504=DIRECTION('ref_axis',(0.,0.,-1.));
#505=DIRECTION('',(-1.,0.,0.));
#506=DIRECTION('center_axis',(1.,0.,0.));
#507=DIRECTION('ref_axis',(0.,0.,-1.));
#508=DIRECTION('center_axis',(0.,0.,1.));
#509=DIRECTION('ref_axis',(1.,0.,0.));
#510=DIRECTION('center_axis',(0.,0.,1.));
#511=DIRECTION('ref_axis',(1.,0.,0.));
#512=DIRECTION('center_axis',(0.,0.,1.));
#513=DIRECTION('ref_axis',(1.,0.,0.));
#514=DIRECTION('center_axis',(0.,0.,1.));
#515=DIRECTION('ref_axis',(1.,0.,0.));
#516=DIRECTION('',(0.,0.,-1.));
#517=DIRECTION('center_axis',(0.,0.,1.));
#518=DIRECTION('ref_axis',(1.,0.,0.));
#519=DIRECTION('',(0.,0.,-1.));
#520=DIRECTION('center_axis',(0.,0.,1.));
#521=DIRECTION('ref_axis',(1.,0.,0.));
#522=DIRECTION('center_axis',(0.,0.,-1.));
#523=DIRECTION('ref_axis',(-1.,0.,0.));
#524=DIRECTION('',(1.,0.,0.));
#525=DIRECTION('',(0.,-1.,0.));
#526=DIRECTION('',(-1.,0.,0.));
#527=DIRECTION('',(0.,1.,0.));
#528=DIRECTION('center_axis',(1.,0.,0.));
#529=DIRECTION('ref_axis',(0.,1.,0.));
#530=DIRECTION('',(0.,0.,-1.));
#531=DIRECTION('',(0.,1.,0.));
#532=DIRECTION('',(0.,0.,1.));
#533=DIRECTION('center_axis',(0.,-1.,0.));
#534=DIRECTION('ref_axis',(1.,0.,0.));
#535=DIRECTION('',(1.,0.,0.));
#536=DIRECTION('',(0.,0.,1.));
#537=DIRECTION('center_axis',(-1.,0.,0.));
#538=DIRECTION('ref_axis',(0.,-1.,0.));
#539=DIRECTION('',(0.,-1.,0.));
#540=DIRECTION('',(0.,0.,1.));
#541=DIRECTION('center_axis',(0.,1.,0.));
#542=DIRECTION('ref_axis',(-1.,0.,0.));
#543=DIRECTION('',(-1.,0.,0.));
#544=DIRECTION('center_axis',(0.,0.,1.));
#545=DIRECTION('ref_axis',(1.,0.,0.));
#546=CARTESIAN_POINT('',(0.,0.,0.));
#547=CARTESIAN_POINT('Origin',(0.,1.25,0.));
#548=CARTESIAN_POINT('',(-5.5,10.,6.73555739531044E-16));
#549=CARTESIAN_POINT('Origin',(0.,10.,0.));
#550=CARTESIAN_POINT('',(-5.5,5.5,6.73555739531045E-16));
#551=CARTESIAN_POINT('',(-5.5,1.25,6.73555739531044E-16));
#552=CARTESIAN_POINT('',(-3.88908729652601,3.88908729652601,-3.88908729652601));
#553=CARTESIAN_POINT('Origin',(0.,0.,0.));
#554=CARTESIAN_POINT('',(3.88908729652601,3.88908729652601,-3.88908729652601));
#555=CARTESIAN_POINT('Origin',(0.,0.,0.));
#556=CARTESIAN_POINT('',(3.88908729652601,3.88908729652601,3.88908729652601));
#557=CARTESIAN_POINT('Origin',(0.,0.,0.));
#558=CARTESIAN_POINT('',(-3.88908729652601,3.88908729652601,3.88908729652601));
#559=CARTESIAN_POINT('Origin',(0.,0.,0.));
#560=CARTESIAN_POINT('Origin',(0.,0.,0.));
#561=CARTESIAN_POINT('Origin',(0.,-7.5,0.));
#562=CARTESIAN_POINT('',(-5.5,-7.5,6.73555739531044E-16));
#563=CARTESIAN_POINT('Origin',(0.,-7.5,0.));
#564=CARTESIAN_POINT('',(-3.5,-7.5,4.28626379701574E-16));
#565=CARTESIAN_POINT('Origin',(0.,-7.5,0.));
#566=CARTESIAN_POINT('Origin',(0.,1.25,0.));
#567=CARTESIAN_POINT('',(-3.88908729652601,-3.88908729652601,3.88908729652601));
#568=CARTESIAN_POINT('',(-5.5,-5.5,6.73555739531045E-16));
#569=CARTESIAN_POINT('Origin',(0.,0.,0.));
#570=CARTESIAN_POINT('',(3.88908729652601,-3.88908729652601,3.88908729652601));
#571=CARTESIAN_POINT('Origin',(0.,0.,0.));
#572=CARTESIAN_POINT('',(3.88908729652601,-3.88908729652601,-3.88908729652601));
#573=CARTESIAN_POINT('Origin',(0.,0.,0.));
#574=CARTESIAN_POINT('',(-3.88908729652601,-3.88908729652601,-3.88908729652601));
#575=CARTESIAN_POINT('Origin',(0.,0.,0.));
#576=CARTESIAN_POINT('Origin',(0.,0.,0.));
#577=CARTESIAN_POINT('',(-5.5,1.25,6.73555739531044E-16));
#578=CARTESIAN_POINT('Origin',(0.,-24.6410161513775,0.));
#579=CARTESIAN_POINT('',(-3.5,-10.,4.28626379701574E-16));
#580=CARTESIAN_POINT('',(-3.5,-24.6410161513775,4.28626379701574E-16));
#581=CARTESIAN_POINT('Origin',(0.,-10.,0.));
#582=CARTESIAN_POINT('Origin',(0.,0.,1.25));
#583=CARTESIAN_POINT('',(-5.5,-6.73555739531044E-16,10.));
#584=CARTESIAN_POINT('Origin',(0.,0.,10.));
#585=CARTESIAN_POINT('',(-5.5,-6.73555739531045E-16,5.5));
#586=CARTESIAN_POINT('',(-5.5,-6.73555739531044E-16,1.25));
#587=CARTESIAN_POINT('Origin',(0.,0.,0.));
#588=CARTESIAN_POINT('',(5.5,-6.73555739531045E-16,5.5));
#589=CARTESIAN_POINT('Origin',(0.,0.,0.));
#590=CARTESIAN_POINT('Origin',(0.,0.,0.));
#591=CARTESIAN_POINT('Origin',(0.,0.,0.));
#592=CARTESIAN_POINT('Origin',(1.25,0.,0.));
#593=CARTESIAN_POINT('',(10.,-6.73555739531044E-16,5.5));
#594=CARTESIAN_POINT('Origin',(10.,0.,0.));
#595=CARTESIAN_POINT('',(1.25,-6.73555739531044E-16,5.5));
#596=CARTESIAN_POINT('Origin',(0.,0.,0.));
#597=CARTESIAN_POINT('Origin',(-7.5,0.,0.));
#598=CARTESIAN_POINT('',(-7.5,-6.73555739531044E-16,5.5));
#599=CARTESIAN_POINT('Origin',(-7.5,0.,0.));
#600=CARTESIAN_POINT('',(-7.5,-4.28626379701574E-16,3.5));
#601=CARTESIAN_POINT('Origin',(-7.5,0.,0.));
#602=CARTESIAN_POINT('Origin',(1.25,0.,0.));
#603=CARTESIAN_POINT('',(-5.5,-6.73555739531045E-16,-5.5));
#604=CARTESIAN_POINT('Origin',(0.,0.,0.));
#605=CARTESIAN_POINT('Origin',(0.,0.,0.));
#606=CARTESIAN_POINT('',(1.25,-6.73555739531044E-16,5.5));
#607=CARTESIAN_POINT('Origin',(-24.6410161513775,0.,0.));
#608=CARTESIAN_POINT('',(-10.,-4.28626379701574E-16,3.5));
#609=CARTESIAN_POINT('',(-24.6410161513775,-4.28626379701574E-16,3.5));
#610=CARTESIAN_POINT('Origin',(-10.,0.,0.));
#611=CARTESIAN_POINT('Origin',(0.,0.,-7.5));
#612=CARTESIAN_POINT('',(-5.5,-6.73555739531044E-16,-7.5));
#613=CARTESIAN_POINT('Origin',(0.,0.,-7.5));
#614=CARTESIAN_POINT('',(-3.5,-4.28626379701574E-16,-7.5));
#615=CARTESIAN_POINT('Origin',(0.,0.,-7.5));
#616=CARTESIAN_POINT('Origin',(0.,0.,1.25));
#617=CARTESIAN_POINT('',(-5.5,-6.73555739531044E-16,1.25));
#618=CARTESIAN_POINT('Origin',(0.,0.,-24.6410161513775));
#619=CARTESIAN_POINT('',(-3.5,-4.28626379701574E-16,-10.));
#620=CARTESIAN_POINT('',(-3.5,-4.28626379701574E-16,-24.6410161513775));
#621=CARTESIAN_POINT('Origin',(0.,0.,-10.));
#622=CARTESIAN_POINT('Origin',(0.,0.,-10.));
#623=CARTESIAN_POINT('',(-10.,10.,-10.));
#624=CARTESIAN_POINT('',(10.,10.,-10.));
#625=CARTESIAN_POINT('',(10.,10.,-10.));
#626=CARTESIAN_POINT('',(10.,-10.,-10.));
#627=CARTESIAN_POINT('',(10.,-10.,-10.));
#628=CARTESIAN_POINT('',(-10.,-10.,-10.));
#629=CARTESIAN_POINT('',(-10.,-10.,-10.));
#630=CARTESIAN_POINT('',(-10.,10.,-10.));
#631=CARTESIAN_POINT('Origin',(10.,-10.,0.));
#632=CARTESIAN_POINT('',(10.,10.,10.));
#633=CARTESIAN_POINT('',(10.,10.,0.));
#634=CARTESIAN_POINT('',(10.,-10.,10.));
#635=CARTESIAN_POINT('',(10.,-10.,10.));
#636=CARTESIAN_POINT('',(10.,-10.,0.));
#637=CARTESIAN_POINT('Origin',(-10.,-10.,0.));
#638=CARTESIAN_POINT('',(-10.,-10.,10.));
#639=CARTESIAN_POINT('',(-10.,-10.,10.));
#640=CARTESIAN_POINT('',(-10.,-10.,0.));
#641=CARTESIAN_POINT('Origin',(-10.,10.,0.));
#642=CARTESIAN_POINT('',(-10.,10.,10.));
#643=CARTESIAN_POINT('',(-10.,10.,10.));
#644=CARTESIAN_POINT('',(-10.,10.,0.));
#645=CARTESIAN_POINT('Origin',(10.,10.,0.));
#646=CARTESIAN_POINT('',(10.,10.,10.));
#647=CARTESIAN_POINT('Origin',(0.,0.,10.));
#648=UNCERTAINTY_MEASURE_WITH_UNIT(LENGTH_MEASURE(0.01),#652,
'DISTANCE_ACCURACY_VALUE',
'Maximum model space distance between geometric entities at asserted c
onnectivities');
#649=UNCERTAINTY_MEASURE_WITH_UNIT(LENGTH_MEASURE(0.01),#652,
'DISTANCE_ACCURACY_VALUE',
'Maximum model space distance between geometric entities at asserted c
onnectivities');
#650=(
GEOMETRIC_REPRESENTATION_CONTEXT(3)
GLOBAL_UNCERTAINTY_ASSIGNED_CONTEXT((#648))
GLOBAL_UNIT_ASSIGNED_CONTEXT((#652,#654,#655))
REPRESENTATION_CONTEXT('','3D')
);
#651=(
GEOMETRIC_REPRESENTATION_CONTEXT(3)
GLOBAL_UNCERTAINTY_ASSIGNED_CONTEXT((#649))
GLOBAL_UNIT_ASSIGNED_CONTEXT((#652,#654,#655))
REPRESENTATION_CONTEXT('','3D')
);
#652=(
LENGTH_UNIT()
NAMED_UNIT(*)
SI_UNIT(.MILLI.,.METRE.)
);
#653=(
LENGTH_UNIT()
NAMED_UNIT(*)
SI_UNIT(.CENTI.,.METRE.)
);
#654=(
NAMED_UNIT(*)
PLANE_ANGLE_UNIT()
SI_UNIT($,.RADIAN.)
);
#655=(
NAMED_UNIT(*)
SI_UNIT($,.STERADIAN.)
SOLID_ANGLE_UNIT()
);
#656=SHAPE_DEFINITION_REPRESENTATION(#657,#658);
#657=PRODUCT_DEFINITION_SHAPE('',$,#660);
#658=SHAPE_REPRESENTATION('',(#381),#650);
#659=PRODUCT_DEFINITION_CONTEXT('part definition',#664,'design');
#660=PRODUCT_DEFINITION('THREE-WAY CORNER CUBE CONNECTOR (20.20.20)',
'THREE-WAY CORNER CUBE CONNECTOR (20.20.20)',#661,#659);
#661=PRODUCT_DEFINITION_FORMATION('',$,#666);
#662=PRODUCT_RELATED_PRODUCT_CATEGORY(
'THREE-WAY CORNER CUBE CONNECTOR (20.20.20)',
'THREE-WAY CORNER CUBE CONNECTOR (20.20.20)',(#666));
#663=APPLICATION_PROTOCOL_DEFINITION('international standard',
'automotive_design',2009,#664);
#664=APPLICATION_CONTEXT(
'Core Data for Automotive Mechanical Design Process');
#665=PRODUCT_CONTEXT('part definition',#664,'mechanical');
#666=PRODUCT('THREE-WAY CORNER CUBE CONNECTOR (20.20.20)',
'THREE-WAY CORNER CUBE CONNECTOR (20.20.20)',$,(#665));
#667=PRESENTATION_STYLE_ASSIGNMENT((#668));
#668=SURFACE_STYLE_USAGE(.BOTH.,#671);
#669=SURFACE_STYLE_RENDERING_WITH_PROPERTIES($,#675,(#670));
#670=SURFACE_STYLE_TRANSPARENT(0.);
#671=SURFACE_SIDE_STYLE('',(#672,#669));
#672=SURFACE_STYLE_FILL_AREA(#673);
#673=FILL_AREA_STYLE('',(#674));
#674=FILL_AREA_STYLE_COLOUR('',#675);
#675=COLOUR_RGB('',0.87843137254902,0.874509803921569,0.858823529411765);
ENDSEC;
END-ISO-10303-21;
