ISO-10303-21;
HEADER;
/* Generated by software containing ST-Developer
 * from STEP Tools, Inc. (www.steptools.com) 
 */

FILE_DESCRIPTION(
/* description */ (''),
/* implementation_level */ '2;1');

FILE_NAME(
/* name */ '30mm.6.stp',
/* time_stamp */ '2023-01-26T08:33:37+02:00',
/* author */ ('S4'),
/* organization */ (''),
/* preprocessor_version */ 'ST-DEVELOPER v19.2',
/* originating_system */ 'Autodesk Inventor 2023',
/* authorisation */ '');

FILE_SCHEMA (('AUTOMOTIVE_DESIGN { 1 0 10303 214 3 1 1 }'));
ENDSEC;

DATA;
#10=MECHANICAL_DESIGN_GEOMETRIC_PRESENTATION_REPRESENTATION('',(#13),#592);
#11=SHAPE_REPRESENTATION_RELATIONSHIP('SRR','None',#599,#12);
#12=ADVANCED_BREP_SHAPE_REPRESENTATION('',(#14),#591);
#13=STYLED_ITEM('',(#608),#14);
#14=MANIFOLD_SOLID_BREP('Solid3',#313);
#15=TOROIDAL_SURFACE('',#377,7.75,0.2);
#16=TOROIDAL_SURFACE('',#379,11.25,0.2);
#17=TOROIDAL_SURFACE('',#381,11.25,0.2);
#18=FACE_BOUND('',#60,.T.);
#19=FACE_BOUND('',#63,.T.);
#20=FACE_BOUND('',#67,.T.);
#21=FACE_BOUND('',#70,.T.);
#22=FACE_BOUND('',#74,.T.);
#23=FACE_BOUND('',#82,.T.);
#24=PLANE('',#343);
#25=PLANE('',#347);
#26=PLANE('',#355);
#27=PLANE('',#361);
#28=PLANE('',#369);
#29=PLANE('',#383);
#30=CYLINDRICAL_SURFACE('',#340,15.05);
#31=CYLINDRICAL_SURFACE('',#353,11.05);
#32=CYLINDRICAL_SURFACE('',#363,7.55);
#33=CYLINDRICAL_SURFACE('',#371,11.05);
#34=CYLINDRICAL_SURFACE('',#375,2.5);
#35=CYLINDRICAL_SURFACE('',#385,5.);
#36=FACE_OUTER_BOUND('',#57,.T.);
#37=FACE_OUTER_BOUND('',#58,.T.);
#38=FACE_OUTER_BOUND('',#59,.T.);
#39=FACE_OUTER_BOUND('',#61,.T.);
#40=FACE_OUTER_BOUND('',#62,.T.);
#41=FACE_OUTER_BOUND('',#64,.T.);
#42=FACE_OUTER_BOUND('',#65,.T.);
#43=FACE_OUTER_BOUND('',#66,.T.);
#44=FACE_OUTER_BOUND('',#68,.T.);
#45=FACE_OUTER_BOUND('',#69,.T.);
#46=FACE_OUTER_BOUND('',#71,.T.);
#47=FACE_OUTER_BOUND('',#72,.T.);
#48=FACE_OUTER_BOUND('',#73,.T.);
#49=FACE_OUTER_BOUND('',#75,.T.);
#50=FACE_OUTER_BOUND('',#76,.T.);
#51=FACE_OUTER_BOUND('',#77,.T.);
#52=FACE_OUTER_BOUND('',#78,.T.);
#53=FACE_OUTER_BOUND('',#79,.T.);
#54=FACE_OUTER_BOUND('',#80,.T.);
#55=FACE_OUTER_BOUND('',#81,.T.);
#56=FACE_OUTER_BOUND('',#83,.T.);
#57=EDGE_LOOP('',(#204,#205,#206,#207,#208));
#58=EDGE_LOOP('',(#209,#210,#211,#212,#213,#214));
#59=EDGE_LOOP('',(#215));
#60=EDGE_LOOP('',(#216));
#61=EDGE_LOOP('',(#217,#218,#219,#220,#221));
#62=EDGE_LOOP('',(#222));
#63=EDGE_LOOP('',(#223));
#64=EDGE_LOOP('',(#224,#225,#226,#227,#228));
#65=EDGE_LOOP('',(#229,#230,#231,#232,#233));
#66=EDGE_LOOP('',(#234));
#67=EDGE_LOOP('',(#235));
#68=EDGE_LOOP('',(#236,#237,#238,#239,#240));
#69=EDGE_LOOP('',(#241));
#70=EDGE_LOOP('',(#242));
#71=EDGE_LOOP('',(#243,#244,#245,#246,#247));
#72=EDGE_LOOP('',(#248,#249,#250,#251,#252));
#73=EDGE_LOOP('',(#253));
#74=EDGE_LOOP('',(#254));
#75=EDGE_LOOP('',(#255,#256,#257,#258,#259));
#76=EDGE_LOOP('',(#260,#261,#262,#263));
#77=EDGE_LOOP('',(#264,#265,#266,#267));
#78=EDGE_LOOP('',(#268,#269,#270,#271));
#79=EDGE_LOOP('',(#272,#273,#274,#275));
#80=EDGE_LOOP('',(#276,#277,#278,#279));
#81=EDGE_LOOP('',(#280));
#82=EDGE_LOOP('',(#281));
#83=EDGE_LOOP('',(#282,#283,#284,#285));
#84=LINE('',#505,#96);
#85=LINE('',#511,#97);
#86=LINE('',#520,#98);
#87=LINE('',#531,#99);
#88=LINE('',#536,#100);
#89=LINE('',#544,#101);
#90=LINE('',#553,#102);
#91=LINE('',#559,#103);
#92=LINE('',#568,#104);
#93=LINE('',#572,#105);
#94=LINE('',#577,#106);
#95=LINE('',#588,#107);
#96=VECTOR('',#392,14.8);
#97=VECTOR('',#399,15.05);
#98=VECTOR('',#410,14.8);
#99=VECTOR('',#423,10.925);
#100=VECTOR('',#430,11.05);
#101=VECTOR('',#439,7.425);
#102=VECTOR('',#450,7.55);
#103=VECTOR('',#457,10.925);
#104=VECTOR('',#468,11.05);
#105=VECTOR('',#473,2.625);
#106=VECTOR('',#480,2.5);
#107=VECTOR('',#499,5.);
#108=CIRCLE('',#337,14.55);
#109=CIRCLE('',#338,15.05);
#110=CIRCLE('',#339,15.05);
#111=CIRCLE('',#341,15.05);
#112=CIRCLE('',#342,15.05);
#113=CIRCLE('',#344,11.25);
#114=CIRCLE('',#346,14.55);
#115=CIRCLE('',#348,11.25);
#116=CIRCLE('',#350,11.05);
#117=CIRCLE('',#351,11.05);
#118=CIRCLE('',#352,10.8);
#119=CIRCLE('',#354,11.05);
#120=CIRCLE('',#356,5.);
#121=CIRCLE('',#358,7.3);
#122=CIRCLE('',#359,7.55);
#123=CIRCLE('',#360,7.55);
#124=CIRCLE('',#362,2.75);
#125=CIRCLE('',#364,7.55);
#126=CIRCLE('',#366,10.8);
#127=CIRCLE('',#367,11.05);
#128=CIRCLE('',#368,11.05);
#129=CIRCLE('',#370,7.75);
#130=CIRCLE('',#372,11.05);
#131=CIRCLE('',#374,2.5);
#132=CIRCLE('',#376,2.5);
#133=CIRCLE('',#378,0.2);
#134=CIRCLE('',#380,0.2);
#135=CIRCLE('',#382,0.2);
#136=CIRCLE('',#384,5.);
#137=VERTEX_POINT('',#502);
#138=VERTEX_POINT('',#504);
#139=VERTEX_POINT('',#506);
#140=VERTEX_POINT('',#510);
#141=VERTEX_POINT('',#512);
#142=VERTEX_POINT('',#516);
#143=VERTEX_POINT('',#519);
#144=VERTEX_POINT('',#523);
#145=VERTEX_POINT('',#526);
#146=VERTEX_POINT('',#527);
#147=VERTEX_POINT('',#530);
#148=VERTEX_POINT('',#534);
#149=VERTEX_POINT('',#538);
#150=VERTEX_POINT('',#541);
#151=VERTEX_POINT('',#543);
#152=VERTEX_POINT('',#545);
#153=VERTEX_POINT('',#549);
#154=VERTEX_POINT('',#552);
#155=VERTEX_POINT('',#556);
#156=VERTEX_POINT('',#558);
#157=VERTEX_POINT('',#560);
#158=VERTEX_POINT('',#564);
#159=VERTEX_POINT('',#567);
#160=VERTEX_POINT('',#571);
#161=VERTEX_POINT('',#575);
#162=VERTEX_POINT('',#585);
#163=EDGE_CURVE('',#137,#137,#108,.T.);
#164=EDGE_CURVE('',#137,#138,#84,.T.);
#165=EDGE_CURVE('',#138,#139,#109,.T.);
#166=EDGE_CURVE('',#139,#138,#110,.T.);
#167=EDGE_CURVE('',#139,#140,#85,.T.);
#168=EDGE_CURVE('',#141,#140,#111,.T.);
#169=EDGE_CURVE('',#140,#141,#112,.T.);
#170=EDGE_CURVE('',#142,#142,#113,.T.);
#171=EDGE_CURVE('',#141,#143,#86,.T.);
#172=EDGE_CURVE('',#143,#143,#114,.T.);
#173=EDGE_CURVE('',#144,#144,#115,.T.);
#174=EDGE_CURVE('',#145,#146,#116,.T.);
#175=EDGE_CURVE('',#146,#145,#117,.T.);
#176=EDGE_CURVE('',#145,#147,#87,.T.);
#177=EDGE_CURVE('',#147,#147,#118,.T.);
#178=EDGE_CURVE('',#148,#148,#119,.T.);
#179=EDGE_CURVE('',#148,#146,#88,.T.);
#180=EDGE_CURVE('',#149,#149,#120,.T.);
#181=EDGE_CURVE('',#150,#150,#121,.T.);
#182=EDGE_CURVE('',#150,#151,#89,.T.);
#183=EDGE_CURVE('',#151,#152,#122,.T.);
#184=EDGE_CURVE('',#152,#151,#123,.T.);
#185=EDGE_CURVE('',#153,#153,#124,.T.);
#186=EDGE_CURVE('',#152,#154,#90,.T.);
#187=EDGE_CURVE('',#154,#154,#125,.T.);
#188=EDGE_CURVE('',#155,#155,#126,.T.);
#189=EDGE_CURVE('',#155,#156,#91,.T.);
#190=EDGE_CURVE('',#156,#157,#127,.T.);
#191=EDGE_CURVE('',#157,#156,#128,.T.);
#192=EDGE_CURVE('',#158,#158,#129,.T.);
#193=EDGE_CURVE('',#157,#159,#92,.T.);
#194=EDGE_CURVE('',#159,#159,#130,.T.);
#195=EDGE_CURVE('',#153,#160,#93,.T.);
#196=EDGE_CURVE('',#160,#160,#131,.T.);
#197=EDGE_CURVE('',#161,#161,#132,.T.);
#198=EDGE_CURVE('',#161,#160,#94,.T.);
#199=EDGE_CURVE('',#158,#154,#133,.T.);
#200=EDGE_CURVE('',#142,#159,#134,.T.);
#201=EDGE_CURVE('',#148,#144,#135,.T.);
#202=EDGE_CURVE('',#162,#162,#136,.T.);
#203=EDGE_CURVE('',#149,#162,#95,.T.);
#204=ORIENTED_EDGE('',*,*,#163,.T.);
#205=ORIENTED_EDGE('',*,*,#164,.T.);
#206=ORIENTED_EDGE('',*,*,#165,.T.);
#207=ORIENTED_EDGE('',*,*,#166,.T.);
#208=ORIENTED_EDGE('',*,*,#164,.F.);
#209=ORIENTED_EDGE('',*,*,#165,.F.);
#210=ORIENTED_EDGE('',*,*,#166,.F.);
#211=ORIENTED_EDGE('',*,*,#167,.T.);
#212=ORIENTED_EDGE('',*,*,#168,.F.);
#213=ORIENTED_EDGE('',*,*,#169,.F.);
#214=ORIENTED_EDGE('',*,*,#167,.F.);
#215=ORIENTED_EDGE('',*,*,#163,.F.);
#216=ORIENTED_EDGE('',*,*,#170,.F.);
#217=ORIENTED_EDGE('',*,*,#168,.T.);
#218=ORIENTED_EDGE('',*,*,#169,.T.);
#219=ORIENTED_EDGE('',*,*,#171,.T.);
#220=ORIENTED_EDGE('',*,*,#172,.T.);
#221=ORIENTED_EDGE('',*,*,#171,.F.);
#222=ORIENTED_EDGE('',*,*,#172,.F.);
#223=ORIENTED_EDGE('',*,*,#173,.F.);
#224=ORIENTED_EDGE('',*,*,#174,.T.);
#225=ORIENTED_EDGE('',*,*,#175,.T.);
#226=ORIENTED_EDGE('',*,*,#176,.T.);
#227=ORIENTED_EDGE('',*,*,#177,.T.);
#228=ORIENTED_EDGE('',*,*,#176,.F.);
#229=ORIENTED_EDGE('',*,*,#178,.F.);
#230=ORIENTED_EDGE('',*,*,#179,.T.);
#231=ORIENTED_EDGE('',*,*,#174,.F.);
#232=ORIENTED_EDGE('',*,*,#175,.F.);
#233=ORIENTED_EDGE('',*,*,#179,.F.);
#234=ORIENTED_EDGE('',*,*,#177,.F.);
#235=ORIENTED_EDGE('',*,*,#180,.T.);
#236=ORIENTED_EDGE('',*,*,#181,.T.);
#237=ORIENTED_EDGE('',*,*,#182,.T.);
#238=ORIENTED_EDGE('',*,*,#183,.T.);
#239=ORIENTED_EDGE('',*,*,#184,.T.);
#240=ORIENTED_EDGE('',*,*,#182,.F.);
#241=ORIENTED_EDGE('',*,*,#181,.F.);
#242=ORIENTED_EDGE('',*,*,#185,.F.);
#243=ORIENTED_EDGE('',*,*,#183,.F.);
#244=ORIENTED_EDGE('',*,*,#184,.F.);
#245=ORIENTED_EDGE('',*,*,#186,.T.);
#246=ORIENTED_EDGE('',*,*,#187,.F.);
#247=ORIENTED_EDGE('',*,*,#186,.F.);
#248=ORIENTED_EDGE('',*,*,#188,.T.);
#249=ORIENTED_EDGE('',*,*,#189,.T.);
#250=ORIENTED_EDGE('',*,*,#190,.T.);
#251=ORIENTED_EDGE('',*,*,#191,.T.);
#252=ORIENTED_EDGE('',*,*,#189,.F.);
#253=ORIENTED_EDGE('',*,*,#188,.F.);
#254=ORIENTED_EDGE('',*,*,#192,.F.);
#255=ORIENTED_EDGE('',*,*,#190,.F.);
#256=ORIENTED_EDGE('',*,*,#191,.F.);
#257=ORIENTED_EDGE('',*,*,#193,.T.);
#258=ORIENTED_EDGE('',*,*,#194,.F.);
#259=ORIENTED_EDGE('',*,*,#193,.F.);
#260=ORIENTED_EDGE('',*,*,#185,.T.);
#261=ORIENTED_EDGE('',*,*,#195,.T.);
#262=ORIENTED_EDGE('',*,*,#196,.T.);
#263=ORIENTED_EDGE('',*,*,#195,.F.);
#264=ORIENTED_EDGE('',*,*,#197,.T.);
#265=ORIENTED_EDGE('',*,*,#198,.T.);
#266=ORIENTED_EDGE('',*,*,#196,.F.);
#267=ORIENTED_EDGE('',*,*,#198,.F.);
#268=ORIENTED_EDGE('',*,*,#192,.T.);
#269=ORIENTED_EDGE('',*,*,#199,.T.);
#270=ORIENTED_EDGE('',*,*,#187,.T.);
#271=ORIENTED_EDGE('',*,*,#199,.F.);
#272=ORIENTED_EDGE('',*,*,#170,.T.);
#273=ORIENTED_EDGE('',*,*,#200,.T.);
#274=ORIENTED_EDGE('',*,*,#194,.T.);
#275=ORIENTED_EDGE('',*,*,#200,.F.);
#276=ORIENTED_EDGE('',*,*,#178,.T.);
#277=ORIENTED_EDGE('',*,*,#201,.T.);
#278=ORIENTED_EDGE('',*,*,#173,.T.);
#279=ORIENTED_EDGE('',*,*,#201,.F.);
#280=ORIENTED_EDGE('',*,*,#202,.T.);
#281=ORIENTED_EDGE('',*,*,#197,.F.);
#282=ORIENTED_EDGE('',*,*,#180,.F.);
#283=ORIENTED_EDGE('',*,*,#203,.T.);
#284=ORIENTED_EDGE('',*,*,#202,.F.);
#285=ORIENTED_EDGE('',*,*,#203,.F.);
#286=CONICAL_SURFACE('',#336,14.8,0.785398163397444);
#287=CONICAL_SURFACE('',#345,14.8,0.785398163397448);
#288=CONICAL_SURFACE('',#349,10.925,0.785398163397446);
#289=CONICAL_SURFACE('',#357,7.425,0.785398163397428);
#290=CONICAL_SURFACE('',#365,10.925,0.785398163397435);
#291=CONICAL_SURFACE('',#373,2.625,0.785398163397451);
#292=ADVANCED_FACE('',(#36),#286,.T.);
#293=ADVANCED_FACE('',(#37),#30,.T.);
#294=ADVANCED_FACE('',(#38,#18),#24,.T.);
#295=ADVANCED_FACE('',(#39),#287,.T.);
#296=ADVANCED_FACE('',(#40,#19),#25,.T.);
#297=ADVANCED_FACE('',(#41),#288,.T.);
#298=ADVANCED_FACE('',(#42),#31,.T.);
#299=ADVANCED_FACE('',(#43,#20),#26,.T.);
#300=ADVANCED_FACE('',(#44),#289,.T.);
#301=ADVANCED_FACE('',(#45,#21),#27,.T.);
#302=ADVANCED_FACE('',(#46),#32,.T.);
#303=ADVANCED_FACE('',(#47),#290,.T.);
#304=ADVANCED_FACE('',(#48,#22),#28,.T.);
#305=ADVANCED_FACE('',(#49),#33,.T.);
#306=ADVANCED_FACE('',(#50),#291,.F.);
#307=ADVANCED_FACE('',(#51),#34,.F.);
#308=ADVANCED_FACE('',(#52),#15,.F.);
#309=ADVANCED_FACE('',(#53),#16,.F.);
#310=ADVANCED_FACE('',(#54),#17,.F.);
#311=ADVANCED_FACE('',(#55,#23),#29,.T.);
#312=ADVANCED_FACE('',(#56),#35,.F.);
#313=CLOSED_SHELL('',(#292,#293,#294,#295,#296,#297,#298,#299,#300,#301,
#302,#303,#304,#305,#306,#307,#308,#309,#310,#311,#312));
#314=DERIVED_UNIT_ELEMENT(#317,1.);
#315=DERIVED_UNIT_ELEMENT(#594,-3.);
#316=DIMENSIONAL_EXPONENTS(0.,1.,0.,0.,0.,0.,0.);
#317=(
CONVERSION_BASED_UNIT('gram',#319)
MASS_UNIT()
NAMED_UNIT(#316)
);
#318=(
MASS_UNIT()
NAMED_UNIT(*)
SI_UNIT(.KILO.,.GRAM.)
);
#319=MASS_MEASURE_WITH_UNIT(MASS_MEASURE(0.001),#318);
#320=DERIVED_UNIT((#314,#315));
#321=MEASURE_REPRESENTATION_ITEM('density measure',
POSITIVE_RATIO_MEASURE(1.12),#320);
#322=PROPERTY_DEFINITION_REPRESENTATION(#327,#324);
#323=PROPERTY_DEFINITION_REPRESENTATION(#328,#325);
#324=REPRESENTATION('material name',(#326),#591);
#325=REPRESENTATION('density',(#321),#591);
#326=DESCRIPTIVE_REPRESENTATION_ITEM('Nylon, Black','Nylon, Black');
#327=PROPERTY_DEFINITION('material property','material name',#601);
#328=PROPERTY_DEFINITION('material property','density of part',#601);
#329=DATE_TIME_ROLE('creation_date');
#330=APPLIED_DATE_AND_TIME_ASSIGNMENT(#331,#329,(#601));
#331=DATE_AND_TIME(#332,#333);
#332=CALENDAR_DATE(2023,26,1);
#333=LOCAL_TIME(0,0,0.,#334);
#334=COORDINATED_UNIVERSAL_TIME_OFFSET(0,0,.BEHIND.);
#335=AXIS2_PLACEMENT_3D('placement',#500,#386,#387);
#336=AXIS2_PLACEMENT_3D('',#501,#388,#389);
#337=AXIS2_PLACEMENT_3D('',#503,#390,#391);
#338=AXIS2_PLACEMENT_3D('',#507,#393,#394);
#339=AXIS2_PLACEMENT_3D('',#508,#395,#396);
#340=AXIS2_PLACEMENT_3D('',#509,#397,#398);
#341=AXIS2_PLACEMENT_3D('',#513,#400,#401);
#342=AXIS2_PLACEMENT_3D('',#514,#402,#403);
#343=AXIS2_PLACEMENT_3D('',#515,#404,#405);
#344=AXIS2_PLACEMENT_3D('',#517,#406,#407);
#345=AXIS2_PLACEMENT_3D('',#518,#408,#409);
#346=AXIS2_PLACEMENT_3D('',#521,#411,#412);
#347=AXIS2_PLACEMENT_3D('',#522,#413,#414);
#348=AXIS2_PLACEMENT_3D('',#524,#415,#416);
#349=AXIS2_PLACEMENT_3D('',#525,#417,#418);
#350=AXIS2_PLACEMENT_3D('',#528,#419,#420);
#351=AXIS2_PLACEMENT_3D('',#529,#421,#422);
#352=AXIS2_PLACEMENT_3D('',#532,#424,#425);
#353=AXIS2_PLACEMENT_3D('',#533,#426,#427);
#354=AXIS2_PLACEMENT_3D('',#535,#428,#429);
#355=AXIS2_PLACEMENT_3D('',#537,#431,#432);
#356=AXIS2_PLACEMENT_3D('',#539,#433,#434);
#357=AXIS2_PLACEMENT_3D('',#540,#435,#436);
#358=AXIS2_PLACEMENT_3D('',#542,#437,#438);
#359=AXIS2_PLACEMENT_3D('',#546,#440,#441);
#360=AXIS2_PLACEMENT_3D('',#547,#442,#443);
#361=AXIS2_PLACEMENT_3D('',#548,#444,#445);
#362=AXIS2_PLACEMENT_3D('',#550,#446,#447);
#363=AXIS2_PLACEMENT_3D('',#551,#448,#449);
#364=AXIS2_PLACEMENT_3D('',#554,#451,#452);
#365=AXIS2_PLACEMENT_3D('',#555,#453,#454);
#366=AXIS2_PLACEMENT_3D('',#557,#455,#456);
#367=AXIS2_PLACEMENT_3D('',#561,#458,#459);
#368=AXIS2_PLACEMENT_3D('',#562,#460,#461);
#369=AXIS2_PLACEMENT_3D('',#563,#462,#463);
#370=AXIS2_PLACEMENT_3D('',#565,#464,#465);
#371=AXIS2_PLACEMENT_3D('',#566,#466,#467);
#372=AXIS2_PLACEMENT_3D('',#569,#469,#470);
#373=AXIS2_PLACEMENT_3D('',#570,#471,#472);
#374=AXIS2_PLACEMENT_3D('',#573,#474,#475);
#375=AXIS2_PLACEMENT_3D('',#574,#476,#477);
#376=AXIS2_PLACEMENT_3D('',#576,#478,#479);
#377=AXIS2_PLACEMENT_3D('',#578,#481,#482);
#378=AXIS2_PLACEMENT_3D('',#579,#483,#484);
#379=AXIS2_PLACEMENT_3D('',#580,#485,#486);
#380=AXIS2_PLACEMENT_3D('',#581,#487,#488);
#381=AXIS2_PLACEMENT_3D('',#582,#489,#490);
#382=AXIS2_PLACEMENT_3D('',#583,#491,#492);
#383=AXIS2_PLACEMENT_3D('',#584,#493,#494);
#384=AXIS2_PLACEMENT_3D('',#586,#495,#496);
#385=AXIS2_PLACEMENT_3D('',#587,#497,#498);
#386=DIRECTION('axis',(0.,0.,1.));
#387=DIRECTION('refdir',(1.,0.,0.));
#388=DIRECTION('center_axis',(1.,0.,0.));
#389=DIRECTION('ref_axis',(0.,0.,-1.));
#390=DIRECTION('center_axis',(1.,0.,0.));
#391=DIRECTION('ref_axis',(0.,0.,-1.));
#392=DIRECTION('',(0.707106781186551,8.65956056235489E-17,0.707106781186544));
#393=DIRECTION('center_axis',(-1.,0.,0.));
#394=DIRECTION('ref_axis',(0.,0.,-1.));
#395=DIRECTION('center_axis',(-1.,0.,0.));
#396=DIRECTION('ref_axis',(0.,0.,-1.));
#397=DIRECTION('center_axis',(-1.,0.,0.));
#398=DIRECTION('ref_axis',(0.,0.,1.));
#399=DIRECTION('',(1.,0.,0.));
#400=DIRECTION('center_axis',(1.,0.,0.));
#401=DIRECTION('ref_axis',(0.,0.,-1.));
#402=DIRECTION('center_axis',(1.,0.,0.));
#403=DIRECTION('ref_axis',(0.,0.,-1.));
#404=DIRECTION('center_axis',(-1.,0.,0.));
#405=DIRECTION('ref_axis',(0.,0.,1.));
#406=DIRECTION('center_axis',(-1.,0.,0.));
#407=DIRECTION('ref_axis',(0.,1.22464679914735E-16,-1.));
#408=DIRECTION('center_axis',(-1.,0.,0.));
#409=DIRECTION('ref_axis',(0.,0.,-1.));
#410=DIRECTION('',(0.707106781186548,-8.65956056235493E-17,-0.707106781186548));
#411=DIRECTION('center_axis',(-1.,0.,0.));
#412=DIRECTION('ref_axis',(0.,0.,-1.));
#413=DIRECTION('center_axis',(1.,0.,0.));
#414=DIRECTION('ref_axis',(0.,0.,-1.));
#415=DIRECTION('center_axis',(1.,0.,0.));
#416=DIRECTION('ref_axis',(0.,1.22464679914735E-16,-1.));
#417=DIRECTION('center_axis',(-1.,0.,0.));
#418=DIRECTION('ref_axis',(0.,0.,-1.));
#419=DIRECTION('center_axis',(1.,0.,0.));
#420=DIRECTION('ref_axis',(0.,0.,-1.));
#421=DIRECTION('center_axis',(1.,0.,0.));
#422=DIRECTION('ref_axis',(0.,0.,-1.));
#423=DIRECTION('',(0.707106781186549,-8.65956056235491E-17,-0.707106781186546));
#424=DIRECTION('center_axis',(-1.,0.,0.));
#425=DIRECTION('ref_axis',(0.,0.,-1.));
#426=DIRECTION('center_axis',(-1.,0.,0.));
#427=DIRECTION('ref_axis',(0.,0.,1.));
#428=DIRECTION('center_axis',(-1.,0.,0.));
#429=DIRECTION('ref_axis',(0.,1.22464679914735E-16,-1.));
#430=DIRECTION('',(1.,0.,0.));
#431=DIRECTION('center_axis',(1.,0.,0.));
#432=DIRECTION('ref_axis',(0.,0.,-1.));
#433=DIRECTION('center_axis',(-1.,0.,0.));
#434=DIRECTION('ref_axis',(0.,0.,-1.));
#435=DIRECTION('center_axis',(1.,0.,0.));
#436=DIRECTION('ref_axis',(0.,0.,-1.));
#437=DIRECTION('center_axis',(1.,0.,0.));
#438=DIRECTION('ref_axis',(0.,0.,-1.));
#439=DIRECTION('',(0.707106781186562,8.65956056235476E-17,0.707106781186533));
#440=DIRECTION('center_axis',(-1.,0.,0.));
#441=DIRECTION('ref_axis',(0.,0.,-1.));
#442=DIRECTION('center_axis',(-1.,0.,0.));
#443=DIRECTION('ref_axis',(0.,0.,-1.));
#444=DIRECTION('center_axis',(-1.,0.,0.));
#445=DIRECTION('ref_axis',(0.,0.,1.));
#446=DIRECTION('center_axis',(-1.,0.,0.));
#447=DIRECTION('ref_axis',(0.,0.,-1.));
#448=DIRECTION('center_axis',(-1.,0.,0.));
#449=DIRECTION('ref_axis',(0.,0.,1.));
#450=DIRECTION('',(1.,0.,0.));
#451=DIRECTION('center_axis',(1.,0.,0.));
#452=DIRECTION('ref_axis',(0.,1.22464679914735E-16,-1.));
#453=DIRECTION('center_axis',(1.,0.,0.));
#454=DIRECTION('ref_axis',(0.,0.,-1.));
#455=DIRECTION('center_axis',(1.,0.,0.));
#456=DIRECTION('ref_axis',(0.,0.,-1.));
#457=DIRECTION('',(0.707106781186557,8.65956056235482E-17,0.707106781186538));
#458=DIRECTION('center_axis',(-1.,0.,0.));
#459=DIRECTION('ref_axis',(0.,0.,-1.));
#460=DIRECTION('center_axis',(-1.,0.,0.));
#461=DIRECTION('ref_axis',(0.,0.,-1.));
#462=DIRECTION('center_axis',(-1.,0.,0.));
#463=DIRECTION('ref_axis',(0.,0.,1.));
#464=DIRECTION('center_axis',(-1.,0.,0.));
#465=DIRECTION('ref_axis',(0.,1.22464679914735E-16,-1.));
#466=DIRECTION('center_axis',(-1.,0.,0.));
#467=DIRECTION('ref_axis',(0.,0.,1.));
#468=DIRECTION('',(1.,0.,0.));
#469=DIRECTION('center_axis',(1.,0.,0.));
#470=DIRECTION('ref_axis',(0.,1.22464679914735E-16,-1.));
#471=DIRECTION('center_axis',(-1.,0.,0.));
#472=DIRECTION('ref_axis',(0.,0.,-1.));
#473=DIRECTION('',(0.707106781186546,-8.65956056235495E-17,-0.707106781186549));
#474=DIRECTION('center_axis',(1.,0.,0.));
#475=DIRECTION('ref_axis',(0.,0.,-1.));
#476=DIRECTION('center_axis',(1.,0.,0.));
#477=DIRECTION('ref_axis',(0.,0.,-1.));
#478=DIRECTION('center_axis',(1.,0.,0.));
#479=DIRECTION('ref_axis',(0.,0.,-1.));
#480=DIRECTION('',(-1.,0.,0.));
#481=DIRECTION('center_axis',(-1.,0.,0.));
#482=DIRECTION('ref_axis',(0.,0.,1.));
#483=DIRECTION('center_axis',(0.,-1.,1.22464679914735E-16));
#484=DIRECTION('ref_axis',(0.,-1.22464679914735E-16,-1.));
#485=DIRECTION('center_axis',(-1.,0.,0.));
#486=DIRECTION('ref_axis',(0.,0.,1.));
#487=DIRECTION('center_axis',(0.,-1.,1.22464679914735E-16));
#488=DIRECTION('ref_axis',(0.,-1.22464679914735E-16,-1.));
#489=DIRECTION('center_axis',(-1.,0.,0.));
#490=DIRECTION('ref_axis',(0.,0.,1.));
#491=DIRECTION('center_axis',(0.,-1.,1.22464679914735E-16));
#492=DIRECTION('ref_axis',(0.,-1.22464679914735E-16,-1.));
#493=DIRECTION('center_axis',(1.,0.,0.));
#494=DIRECTION('ref_axis',(0.,0.,-1.));
#495=DIRECTION('center_axis',(1.,0.,0.));
#496=DIRECTION('ref_axis',(0.,0.,-1.));
#497=DIRECTION('center_axis',(1.,0.,0.));
#498=DIRECTION('ref_axis',(0.,0.,-1.));
#499=DIRECTION('',(-1.,0.,0.));
#500=CARTESIAN_POINT('',(0.,0.,0.));
#501=CARTESIAN_POINT('Origin',(-12.85,0.,0.));
#502=CARTESIAN_POINT('',(-13.1,-1.7818610927594E-15,14.55));
#503=CARTESIAN_POINT('Origin',(-13.1,0.,0.));
#504=CARTESIAN_POINT('',(-12.6,1.84309343271677E-15,15.05));
#505=CARTESIAN_POINT('',(-12.85,1.81247726273808E-15,14.8));
#506=CARTESIAN_POINT('',(-12.6,-1.84309343271677E-15,-15.05));
#507=CARTESIAN_POINT('Origin',(-12.6,0.,0.));
#508=CARTESIAN_POINT('Origin',(-12.6,0.,0.));
#509=CARTESIAN_POINT('Origin',(-10.05,0.,0.));
#510=CARTESIAN_POINT('',(-7.5,-1.84309343271677E-15,-15.05));
#511=CARTESIAN_POINT('',(-10.05,-1.84309343271677E-15,-15.05));
#512=CARTESIAN_POINT('',(-7.5,-1.84309343271677E-15,15.05));
#513=CARTESIAN_POINT('Origin',(-7.5,0.,0.));
#514=CARTESIAN_POINT('Origin',(-7.5,0.,0.));
#515=CARTESIAN_POINT('Origin',(-13.1,0.,11.05));
#516=CARTESIAN_POINT('',(-13.1,-1.37772764904077E-15,-11.25));
#517=CARTESIAN_POINT('Origin',(-13.1,0.,0.));
#518=CARTESIAN_POINT('Origin',(-7.25,0.,0.));
#519=CARTESIAN_POINT('',(-7.,1.7818610927594E-15,14.55));
#520=CARTESIAN_POINT('',(-7.25,1.81247726273808E-15,14.8));
#521=CARTESIAN_POINT('Origin',(-7.,0.,0.));
#522=CARTESIAN_POINT('Origin',(-7.,0.,15.05));
#523=CARTESIAN_POINT('',(-7.,-1.37772764904077E-15,-11.25));
#524=CARTESIAN_POINT('Origin',(-7.,0.,0.));
#525=CARTESIAN_POINT('Origin',(-0.125,0.,0.));
#526=CARTESIAN_POINT('',(-0.25,-1.35323471305783E-15,11.05));
#527=CARTESIAN_POINT('',(-0.25,-1.35323471305783E-15,-11.05));
#528=CARTESIAN_POINT('Origin',(-0.25,0.,0.));
#529=CARTESIAN_POINT('Origin',(-0.25,0.,0.));
#530=CARTESIAN_POINT('',(0.,1.32261854307914E-15,10.8));
#531=CARTESIAN_POINT('',(-0.125,1.33792662806848E-15,10.925));
#532=CARTESIAN_POINT('Origin',(0.,0.,0.));
#533=CARTESIAN_POINT('Origin',(-3.5,0.,0.));
#534=CARTESIAN_POINT('',(-6.8,-1.35323471305783E-15,-11.05));
#535=CARTESIAN_POINT('Origin',(-6.8,0.,0.));
#536=CARTESIAN_POINT('',(-3.5,-1.35323471305783E-15,-11.05));
#537=CARTESIAN_POINT('Origin',(0.,0.,11.05));
#538=CARTESIAN_POINT('',(0.,-6.12323399573677E-16,5.));
#539=CARTESIAN_POINT('Origin',(0.,0.,0.));
#540=CARTESIAN_POINT('Origin',(-23.725,0.,0.));
#541=CARTESIAN_POINT('',(-23.85,-8.93992163377568E-16,7.3));
#542=CARTESIAN_POINT('Origin',(-23.85,0.,0.));
#543=CARTESIAN_POINT('',(-23.6,9.24608333356252E-16,7.55));
#544=CARTESIAN_POINT('',(-23.725,9.0930024836691E-16,7.425));
#545=CARTESIAN_POINT('',(-23.6,-9.24608333356252E-16,-7.55));
#546=CARTESIAN_POINT('Origin',(-23.6,0.,0.));
#547=CARTESIAN_POINT('Origin',(-23.6,0.,0.));
#548=CARTESIAN_POINT('Origin',(-23.85,0.,0.));
#549=CARTESIAN_POINT('',(-23.85,3.36777869765522E-16,2.75));
#550=CARTESIAN_POINT('Origin',(-23.85,0.,0.));
#551=CARTESIAN_POINT('Origin',(-21.975,0.,0.));
#552=CARTESIAN_POINT('',(-20.3,-9.24608333356252E-16,-7.55));
#553=CARTESIAN_POINT('',(-21.975,-9.24608333356252E-16,-7.55));
#554=CARTESIAN_POINT('Origin',(-20.3,0.,0.));
#555=CARTESIAN_POINT('Origin',(-19.975,0.,0.));
#556=CARTESIAN_POINT('',(-20.1,-1.32261854307914E-15,10.8));
#557=CARTESIAN_POINT('Origin',(-20.1,0.,0.));
#558=CARTESIAN_POINT('',(-19.85,1.35323471305783E-15,11.05));
#559=CARTESIAN_POINT('',(-19.975,1.33792662806848E-15,10.925));
#560=CARTESIAN_POINT('',(-19.85,-1.35323471305783E-15,-11.05));
#561=CARTESIAN_POINT('Origin',(-19.85,0.,0.));
#562=CARTESIAN_POINT('Origin',(-19.85,0.,0.));
#563=CARTESIAN_POINT('Origin',(-20.1,0.,7.55));
#564=CARTESIAN_POINT('',(-20.1,-9.49101269339199E-16,-7.75));
#565=CARTESIAN_POINT('Origin',(-20.1,0.,0.));
#566=CARTESIAN_POINT('Origin',(-16.6,0.,0.));
#567=CARTESIAN_POINT('',(-13.3,-1.35323471305783E-15,-11.05));
#568=CARTESIAN_POINT('',(-16.6,-1.35323471305783E-15,-11.05));
#569=CARTESIAN_POINT('Origin',(-13.3,0.,0.));
#570=CARTESIAN_POINT('Origin',(-23.725,0.,0.));
#571=CARTESIAN_POINT('',(-23.6,-3.06161699786838E-16,2.5));
#572=CARTESIAN_POINT('',(-23.725,3.2146978477618E-16,2.625));
#573=CARTESIAN_POINT('Origin',(-23.6,0.,0.));
#574=CARTESIAN_POINT('Origin',(-48.7938776897266,0.,0.));
#575=CARTESIAN_POINT('',(-7.,-3.06161699786838E-16,2.5));
#576=CARTESIAN_POINT('Origin',(-7.,0.,0.));
#577=CARTESIAN_POINT('',(-48.7938776897266,-3.06161699786838E-16,2.5));
#578=CARTESIAN_POINT('Origin',(-20.3,0.,0.));
#579=CARTESIAN_POINT('Origin',(-20.3,-9.49101269339199E-16,-7.75));
#580=CARTESIAN_POINT('Origin',(-13.3,0.,0.));
#581=CARTESIAN_POINT('Origin',(-13.3,-1.37772764904077E-15,-11.25));
#582=CARTESIAN_POINT('Origin',(-6.8,0.,0.));
#583=CARTESIAN_POINT('Origin',(-6.8,-1.37772764904077E-15,-11.25));
#584=CARTESIAN_POINT('Origin',(-7.,0.,0.));
#585=CARTESIAN_POINT('',(-7.,-6.12323399573677E-16,5.));
#586=CARTESIAN_POINT('Origin',(-7.,0.,0.));
#587=CARTESIAN_POINT('Origin',(-3.5,0.,0.));
#588=CARTESIAN_POINT('',(-3.5,-6.12323399573677E-16,5.));
#589=UNCERTAINTY_MEASURE_WITH_UNIT(LENGTH_MEASURE(0.01),#593,
'DISTANCE_ACCURACY_VALUE',
'Maximum model space distance between geometric entities at asserted c
onnectivities');
#590=UNCERTAINTY_MEASURE_WITH_UNIT(LENGTH_MEASURE(0.01),#593,
'DISTANCE_ACCURACY_VALUE',
'Maximum model space distance between geometric entities at asserted c
onnectivities');
#591=(
GEOMETRIC_REPRESENTATION_CONTEXT(3)
GLOBAL_UNCERTAINTY_ASSIGNED_CONTEXT((#589))
GLOBAL_UNIT_ASSIGNED_CONTEXT((#593,#595,#596))
REPRESENTATION_CONTEXT('','3D')
);
#592=(
GEOMETRIC_REPRESENTATION_CONTEXT(3)
GLOBAL_UNCERTAINTY_ASSIGNED_CONTEXT((#590))
GLOBAL_UNIT_ASSIGNED_CONTEXT((#593,#595,#596))
REPRESENTATION_CONTEXT('','3D')
);
#593=(
LENGTH_UNIT()
NAMED_UNIT(*)
SI_UNIT(.MILLI.,.METRE.)
);
#594=(
LENGTH_UNIT()
NAMED_UNIT(*)
SI_UNIT(.CENTI.,.METRE.)
);
#595=(
NAMED_UNIT(*)
PLANE_ANGLE_UNIT()
SI_UNIT($,.RADIAN.)
);
#596=(
NAMED_UNIT(*)
SI_UNIT($,.STERADIAN.)
SOLID_ANGLE_UNIT()
);
#597=SHAPE_DEFINITION_REPRESENTATION(#598,#599);
#598=PRODUCT_DEFINITION_SHAPE('',$,#601);
#599=SHAPE_REPRESENTATION('',(#335),#591);
#600=PRODUCT_DEFINITION_CONTEXT('part definition',#605,'design');
#601=PRODUCT_DEFINITION('30mm.6','30mm.6',#602,#600);
#602=PRODUCT_DEFINITION_FORMATION('',$,#607);
#603=PRODUCT_RELATED_PRODUCT_CATEGORY('30mm.6','30mm.6',(#607));
#604=APPLICATION_PROTOCOL_DEFINITION('international standard',
'automotive_design',2009,#605);
#605=APPLICATION_CONTEXT(
'Core Data for Automotive Mechanical Design Process');
#606=PRODUCT_CONTEXT('part definition',#605,'mechanical');
#607=PRODUCT('30mm.6','30mm.6',$,(#606));
#608=PRESENTATION_STYLE_ASSIGNMENT((#609));
#609=SURFACE_STYLE_USAGE(.BOTH.,#612);
#610=SURFACE_STYLE_RENDERING_WITH_PROPERTIES($,#616,(#611));
#611=SURFACE_STYLE_TRANSPARENT(0.);
#612=SURFACE_SIDE_STYLE('',(#613,#610));
#613=SURFACE_STYLE_FILL_AREA(#614);
#614=FILL_AREA_STYLE('',(#615));
#615=FILL_AREA_STYLE_COLOUR('',#616);
#616=COLOUR_RGB('',0.250980392156863,0.250980392156863,0.250980392156863);
ENDSEC;
END-ISO-10303-21;
