ISO-10303-21;
HEADER;
/* Generated by software containing ST-Developer
 * from STEP Tools, Inc. (www.steptools.com) 
 */

FILE_DESCRIPTION(
/* description */ (''),
/* implementation_level */ '2;1');

FILE_NAME(
/* name */ '50mm.10.5.stp',
/* time_stamp */ '2023-01-26T08:33:26+02:00',
/* author */ ('S4'),
/* organization */ (''),
/* preprocessor_version */ 'ST-DEVELOPER v19.2',
/* originating_system */ 'Autodesk Inventor 2023',
/* authorisation */ '');

FILE_SCHEMA (('AUTOMOTIVE_DESIGN { 1 0 10303 214 3 1 1 }'));
ENDSEC;

DATA;
#10=MECHANICAL_DESIGN_GEOMETRIC_PRESENTATION_REPRESENTATION('',(#13),#557);
#11=SHAPE_REPRESENTATION_RELATIONSHIP('SRR','None',#564,#12);
#12=ADVANCED_BREP_SHAPE_REPRESENTATION('',(#14),#556);
#13=STYLED_ITEM('',(#573),#14);
#14=MANIFOLD_SOLID_BREP('Solid3',#294);
#15=TOROIDAL_SURFACE('',#353,10.3,0.2);
#16=TOROIDAL_SURFACE('',#357,19.5,0.2);
#17=TOROIDAL_SURFACE('',#359,19.5,0.2);
#18=FACE_BOUND('',#59,.T.);
#19=FACE_BOUND('',#62,.T.);
#20=FACE_BOUND('',#66,.T.);
#21=FACE_BOUND('',#69,.T.);
#22=FACE_BOUND('',#74,.T.);
#23=FACE_BOUND('',#80,.T.);
#24=PLANE('',#324);
#25=PLANE('',#328);
#26=PLANE('',#336);
#27=PLANE('',#342);
#28=PLANE('',#351);
#29=PLANE('',#361);
#30=CYLINDRICAL_SURFACE('',#321,25.85);
#31=CYLINDRICAL_SURFACE('',#334,19.3);
#32=CYLINDRICAL_SURFACE('',#344,19.3);
#33=CYLINDRICAL_SURFACE('',#349,4.25);
#34=CYLINDRICAL_SURFACE('',#356,10.1);
#35=CYLINDRICAL_SURFACE('',#363,10.);
#36=FACE_OUTER_BOUND('',#56,.T.);
#37=FACE_OUTER_BOUND('',#57,.T.);
#38=FACE_OUTER_BOUND('',#58,.T.);
#39=FACE_OUTER_BOUND('',#60,.T.);
#40=FACE_OUTER_BOUND('',#61,.T.);
#41=FACE_OUTER_BOUND('',#63,.T.);
#42=FACE_OUTER_BOUND('',#64,.T.);
#43=FACE_OUTER_BOUND('',#65,.T.);
#44=FACE_OUTER_BOUND('',#67,.T.);
#45=FACE_OUTER_BOUND('',#68,.T.);
#46=FACE_OUTER_BOUND('',#70,.T.);
#47=FACE_OUTER_BOUND('',#71,.T.);
#48=FACE_OUTER_BOUND('',#72,.T.);
#49=FACE_OUTER_BOUND('',#73,.T.);
#50=FACE_OUTER_BOUND('',#75,.T.);
#51=FACE_OUTER_BOUND('',#76,.T.);
#52=FACE_OUTER_BOUND('',#77,.T.);
#53=FACE_OUTER_BOUND('',#78,.T.);
#54=FACE_OUTER_BOUND('',#79,.T.);
#55=FACE_OUTER_BOUND('',#81,.T.);
#56=EDGE_LOOP('',(#193,#194,#195,#196,#197));
#57=EDGE_LOOP('',(#198,#199,#200,#201,#202,#203));
#58=EDGE_LOOP('',(#204));
#59=EDGE_LOOP('',(#205));
#60=EDGE_LOOP('',(#206,#207,#208,#209,#210));
#61=EDGE_LOOP('',(#211));
#62=EDGE_LOOP('',(#212));
#63=EDGE_LOOP('',(#213,#214,#215,#216,#217));
#64=EDGE_LOOP('',(#218,#219,#220,#221,#222));
#65=EDGE_LOOP('',(#223));
#66=EDGE_LOOP('',(#224));
#67=EDGE_LOOP('',(#225,#226,#227,#228,#229));
#68=EDGE_LOOP('',(#230));
#69=EDGE_LOOP('',(#231));
#70=EDGE_LOOP('',(#232,#233,#234,#235,#236));
#71=EDGE_LOOP('',(#237,#238,#239,#240));
#72=EDGE_LOOP('',(#241,#242,#243,#244));
#73=EDGE_LOOP('',(#245));
#74=EDGE_LOOP('',(#246));
#75=EDGE_LOOP('',(#247,#248,#249,#250));
#76=EDGE_LOOP('',(#251,#252,#253,#254));
#77=EDGE_LOOP('',(#255,#256,#257,#258));
#78=EDGE_LOOP('',(#259,#260,#261,#262));
#79=EDGE_LOOP('',(#263));
#80=EDGE_LOOP('',(#264));
#81=EDGE_LOOP('',(#265,#266,#267,#268));
#82=LINE('',#476,#93);
#83=LINE('',#482,#94);
#84=LINE('',#491,#95);
#85=LINE('',#502,#96);
#86=LINE('',#507,#97);
#87=LINE('',#515,#98);
#88=LINE('',#524,#99);
#89=LINE('',#530,#100);
#90=LINE('',#535,#101);
#91=LINE('',#544,#102);
#92=LINE('',#553,#103);
#93=VECTOR('',#370,25.6);
#94=VECTOR('',#377,25.85);
#95=VECTOR('',#388,25.6);
#96=VECTOR('',#401,19.175);
#97=VECTOR('',#408,19.3);
#98=VECTOR('',#417,19.175);
#99=VECTOR('',#428,19.3);
#100=VECTOR('',#435,4.375);
#101=VECTOR('',#442,4.25);
#102=VECTOR('',#455,10.1);
#103=VECTOR('',#470,10.);
#104=CIRCLE('',#318,25.35);
#105=CIRCLE('',#319,25.85);
#106=CIRCLE('',#320,25.85);
#107=CIRCLE('',#322,25.85);
#108=CIRCLE('',#323,25.85);
#109=CIRCLE('',#325,19.5);
#110=CIRCLE('',#327,25.35);
#111=CIRCLE('',#329,19.5);
#112=CIRCLE('',#331,19.3);
#113=CIRCLE('',#332,19.3);
#114=CIRCLE('',#333,19.05);
#115=CIRCLE('',#335,19.3);
#116=CIRCLE('',#337,10.);
#117=CIRCLE('',#339,19.05);
#118=CIRCLE('',#340,19.3);
#119=CIRCLE('',#341,19.3);
#120=CIRCLE('',#343,10.3);
#121=CIRCLE('',#345,19.3);
#122=CIRCLE('',#347,4.5);
#123=CIRCLE('',#348,4.25);
#124=CIRCLE('',#350,4.25);
#125=CIRCLE('',#352,10.1);
#126=CIRCLE('',#354,0.2);
#127=CIRCLE('',#355,10.1);
#128=CIRCLE('',#358,0.2);
#129=CIRCLE('',#360,0.2);
#130=CIRCLE('',#362,10.);
#131=VERTEX_POINT('',#473);
#132=VERTEX_POINT('',#475);
#133=VERTEX_POINT('',#477);
#134=VERTEX_POINT('',#481);
#135=VERTEX_POINT('',#483);
#136=VERTEX_POINT('',#487);
#137=VERTEX_POINT('',#490);
#138=VERTEX_POINT('',#494);
#139=VERTEX_POINT('',#497);
#140=VERTEX_POINT('',#498);
#141=VERTEX_POINT('',#501);
#142=VERTEX_POINT('',#505);
#143=VERTEX_POINT('',#509);
#144=VERTEX_POINT('',#512);
#145=VERTEX_POINT('',#514);
#146=VERTEX_POINT('',#516);
#147=VERTEX_POINT('',#520);
#148=VERTEX_POINT('',#523);
#149=VERTEX_POINT('',#527);
#150=VERTEX_POINT('',#529);
#151=VERTEX_POINT('',#533);
#152=VERTEX_POINT('',#537);
#153=VERTEX_POINT('',#540);
#154=VERTEX_POINT('',#550);
#155=EDGE_CURVE('',#131,#131,#104,.T.);
#156=EDGE_CURVE('',#131,#132,#82,.T.);
#157=EDGE_CURVE('',#132,#133,#105,.T.);
#158=EDGE_CURVE('',#133,#132,#106,.T.);
#159=EDGE_CURVE('',#133,#134,#83,.T.);
#160=EDGE_CURVE('',#135,#134,#107,.T.);
#161=EDGE_CURVE('',#134,#135,#108,.T.);
#162=EDGE_CURVE('',#136,#136,#109,.T.);
#163=EDGE_CURVE('',#135,#137,#84,.T.);
#164=EDGE_CURVE('',#137,#137,#110,.T.);
#165=EDGE_CURVE('',#138,#138,#111,.T.);
#166=EDGE_CURVE('',#139,#140,#112,.T.);
#167=EDGE_CURVE('',#140,#139,#113,.T.);
#168=EDGE_CURVE('',#139,#141,#85,.T.);
#169=EDGE_CURVE('',#141,#141,#114,.T.);
#170=EDGE_CURVE('',#142,#142,#115,.T.);
#171=EDGE_CURVE('',#142,#140,#86,.T.);
#172=EDGE_CURVE('',#143,#143,#116,.T.);
#173=EDGE_CURVE('',#144,#144,#117,.T.);
#174=EDGE_CURVE('',#144,#145,#87,.T.);
#175=EDGE_CURVE('',#145,#146,#118,.T.);
#176=EDGE_CURVE('',#146,#145,#119,.T.);
#177=EDGE_CURVE('',#147,#147,#120,.T.);
#178=EDGE_CURVE('',#146,#148,#88,.T.);
#179=EDGE_CURVE('',#148,#148,#121,.T.);
#180=EDGE_CURVE('',#149,#149,#122,.T.);
#181=EDGE_CURVE('',#149,#150,#89,.T.);
#182=EDGE_CURVE('',#150,#150,#123,.T.);
#183=EDGE_CURVE('',#151,#151,#124,.T.);
#184=EDGE_CURVE('',#151,#150,#90,.T.);
#185=EDGE_CURVE('',#152,#152,#125,.T.);
#186=EDGE_CURVE('',#147,#153,#126,.T.);
#187=EDGE_CURVE('',#153,#153,#127,.T.);
#188=EDGE_CURVE('',#152,#153,#91,.T.);
#189=EDGE_CURVE('',#136,#148,#128,.T.);
#190=EDGE_CURVE('',#142,#138,#129,.T.);
#191=EDGE_CURVE('',#154,#154,#130,.T.);
#192=EDGE_CURVE('',#143,#154,#92,.T.);
#193=ORIENTED_EDGE('',*,*,#155,.T.);
#194=ORIENTED_EDGE('',*,*,#156,.T.);
#195=ORIENTED_EDGE('',*,*,#157,.T.);
#196=ORIENTED_EDGE('',*,*,#158,.T.);
#197=ORIENTED_EDGE('',*,*,#156,.F.);
#198=ORIENTED_EDGE('',*,*,#157,.F.);
#199=ORIENTED_EDGE('',*,*,#158,.F.);
#200=ORIENTED_EDGE('',*,*,#159,.T.);
#201=ORIENTED_EDGE('',*,*,#160,.F.);
#202=ORIENTED_EDGE('',*,*,#161,.F.);
#203=ORIENTED_EDGE('',*,*,#159,.F.);
#204=ORIENTED_EDGE('',*,*,#155,.F.);
#205=ORIENTED_EDGE('',*,*,#162,.F.);
#206=ORIENTED_EDGE('',*,*,#160,.T.);
#207=ORIENTED_EDGE('',*,*,#161,.T.);
#208=ORIENTED_EDGE('',*,*,#163,.T.);
#209=ORIENTED_EDGE('',*,*,#164,.T.);
#210=ORIENTED_EDGE('',*,*,#163,.F.);
#211=ORIENTED_EDGE('',*,*,#164,.F.);
#212=ORIENTED_EDGE('',*,*,#165,.F.);
#213=ORIENTED_EDGE('',*,*,#166,.T.);
#214=ORIENTED_EDGE('',*,*,#167,.T.);
#215=ORIENTED_EDGE('',*,*,#168,.T.);
#216=ORIENTED_EDGE('',*,*,#169,.T.);
#217=ORIENTED_EDGE('',*,*,#168,.F.);
#218=ORIENTED_EDGE('',*,*,#170,.F.);
#219=ORIENTED_EDGE('',*,*,#171,.T.);
#220=ORIENTED_EDGE('',*,*,#166,.F.);
#221=ORIENTED_EDGE('',*,*,#167,.F.);
#222=ORIENTED_EDGE('',*,*,#171,.F.);
#223=ORIENTED_EDGE('',*,*,#169,.F.);
#224=ORIENTED_EDGE('',*,*,#172,.T.);
#225=ORIENTED_EDGE('',*,*,#173,.T.);
#226=ORIENTED_EDGE('',*,*,#174,.T.);
#227=ORIENTED_EDGE('',*,*,#175,.T.);
#228=ORIENTED_EDGE('',*,*,#176,.T.);
#229=ORIENTED_EDGE('',*,*,#174,.F.);
#230=ORIENTED_EDGE('',*,*,#173,.F.);
#231=ORIENTED_EDGE('',*,*,#177,.F.);
#232=ORIENTED_EDGE('',*,*,#175,.F.);
#233=ORIENTED_EDGE('',*,*,#176,.F.);
#234=ORIENTED_EDGE('',*,*,#178,.T.);
#235=ORIENTED_EDGE('',*,*,#179,.F.);
#236=ORIENTED_EDGE('',*,*,#178,.F.);
#237=ORIENTED_EDGE('',*,*,#180,.T.);
#238=ORIENTED_EDGE('',*,*,#181,.T.);
#239=ORIENTED_EDGE('',*,*,#182,.T.);
#240=ORIENTED_EDGE('',*,*,#181,.F.);
#241=ORIENTED_EDGE('',*,*,#183,.T.);
#242=ORIENTED_EDGE('',*,*,#184,.T.);
#243=ORIENTED_EDGE('',*,*,#182,.F.);
#244=ORIENTED_EDGE('',*,*,#184,.F.);
#245=ORIENTED_EDGE('',*,*,#185,.T.);
#246=ORIENTED_EDGE('',*,*,#180,.F.);
#247=ORIENTED_EDGE('',*,*,#177,.T.);
#248=ORIENTED_EDGE('',*,*,#186,.T.);
#249=ORIENTED_EDGE('',*,*,#187,.T.);
#250=ORIENTED_EDGE('',*,*,#186,.F.);
#251=ORIENTED_EDGE('',*,*,#185,.F.);
#252=ORIENTED_EDGE('',*,*,#188,.T.);
#253=ORIENTED_EDGE('',*,*,#187,.F.);
#254=ORIENTED_EDGE('',*,*,#188,.F.);
#255=ORIENTED_EDGE('',*,*,#162,.T.);
#256=ORIENTED_EDGE('',*,*,#189,.T.);
#257=ORIENTED_EDGE('',*,*,#179,.T.);
#258=ORIENTED_EDGE('',*,*,#189,.F.);
#259=ORIENTED_EDGE('',*,*,#170,.T.);
#260=ORIENTED_EDGE('',*,*,#190,.T.);
#261=ORIENTED_EDGE('',*,*,#165,.T.);
#262=ORIENTED_EDGE('',*,*,#190,.F.);
#263=ORIENTED_EDGE('',*,*,#191,.T.);
#264=ORIENTED_EDGE('',*,*,#183,.F.);
#265=ORIENTED_EDGE('',*,*,#172,.F.);
#266=ORIENTED_EDGE('',*,*,#192,.T.);
#267=ORIENTED_EDGE('',*,*,#191,.F.);
#268=ORIENTED_EDGE('',*,*,#192,.F.);
#269=CONICAL_SURFACE('',#317,25.6,0.785398163397448);
#270=CONICAL_SURFACE('',#326,25.6,0.785398163397446);
#271=CONICAL_SURFACE('',#330,19.175,0.785398163397446);
#272=CONICAL_SURFACE('',#338,19.175,0.785398163397444);
#273=CONICAL_SURFACE('',#346,4.375,0.785398163397442);
#274=ADVANCED_FACE('',(#36),#269,.T.);
#275=ADVANCED_FACE('',(#37),#30,.T.);
#276=ADVANCED_FACE('',(#38,#18),#24,.T.);
#277=ADVANCED_FACE('',(#39),#270,.T.);
#278=ADVANCED_FACE('',(#40,#19),#25,.T.);
#279=ADVANCED_FACE('',(#41),#271,.T.);
#280=ADVANCED_FACE('',(#42),#31,.T.);
#281=ADVANCED_FACE('',(#43,#20),#26,.T.);
#282=ADVANCED_FACE('',(#44),#272,.T.);
#283=ADVANCED_FACE('',(#45,#21),#27,.T.);
#284=ADVANCED_FACE('',(#46),#32,.T.);
#285=ADVANCED_FACE('',(#47),#273,.F.);
#286=ADVANCED_FACE('',(#48),#33,.F.);
#287=ADVANCED_FACE('',(#49,#22),#28,.T.);
#288=ADVANCED_FACE('',(#50),#15,.F.);
#289=ADVANCED_FACE('',(#51),#34,.T.);
#290=ADVANCED_FACE('',(#52),#16,.F.);
#291=ADVANCED_FACE('',(#53),#17,.F.);
#292=ADVANCED_FACE('',(#54,#23),#29,.T.);
#293=ADVANCED_FACE('',(#55),#35,.F.);
#294=CLOSED_SHELL('',(#274,#275,#276,#277,#278,#279,#280,#281,#282,#283,
#284,#285,#286,#287,#288,#289,#290,#291,#292,#293));
#295=DERIVED_UNIT_ELEMENT(#298,1.);
#296=DERIVED_UNIT_ELEMENT(#559,-3.);
#297=DIMENSIONAL_EXPONENTS(0.,1.,0.,0.,0.,0.,0.);
#298=(
CONVERSION_BASED_UNIT('gram',#300)
MASS_UNIT()
NAMED_UNIT(#297)
);
#299=(
MASS_UNIT()
NAMED_UNIT(*)
SI_UNIT(.KILO.,.GRAM.)
);
#300=MASS_MEASURE_WITH_UNIT(MASS_MEASURE(0.001),#299);
#301=DERIVED_UNIT((#295,#296));
#302=MEASURE_REPRESENTATION_ITEM('density measure',
POSITIVE_RATIO_MEASURE(1.12),#301);
#303=PROPERTY_DEFINITION_REPRESENTATION(#308,#305);
#304=PROPERTY_DEFINITION_REPRESENTATION(#309,#306);
#305=REPRESENTATION('material name',(#307),#556);
#306=REPRESENTATION('density',(#302),#556);
#307=DESCRIPTIVE_REPRESENTATION_ITEM('Nylon, Black','Nylon, Black');
#308=PROPERTY_DEFINITION('material property','material name',#566);
#309=PROPERTY_DEFINITION('material property','density of part',#566);
#310=DATE_TIME_ROLE('creation_date');
#311=APPLIED_DATE_AND_TIME_ASSIGNMENT(#312,#310,(#566));
#312=DATE_AND_TIME(#313,#314);
#313=CALENDAR_DATE(2023,26,1);
#314=LOCAL_TIME(0,0,0.,#315);
#315=COORDINATED_UNIVERSAL_TIME_OFFSET(0,0,.BEHIND.);
#316=AXIS2_PLACEMENT_3D('placement',#471,#364,#365);
#317=AXIS2_PLACEMENT_3D('',#472,#366,#367);
#318=AXIS2_PLACEMENT_3D('',#474,#368,#369);
#319=AXIS2_PLACEMENT_3D('',#478,#371,#372);
#320=AXIS2_PLACEMENT_3D('',#479,#373,#374);
#321=AXIS2_PLACEMENT_3D('',#480,#375,#376);
#322=AXIS2_PLACEMENT_3D('',#484,#378,#379);
#323=AXIS2_PLACEMENT_3D('',#485,#380,#381);
#324=AXIS2_PLACEMENT_3D('',#486,#382,#383);
#325=AXIS2_PLACEMENT_3D('',#488,#384,#385);
#326=AXIS2_PLACEMENT_3D('',#489,#386,#387);
#327=AXIS2_PLACEMENT_3D('',#492,#389,#390);
#328=AXIS2_PLACEMENT_3D('',#493,#391,#392);
#329=AXIS2_PLACEMENT_3D('',#495,#393,#394);
#330=AXIS2_PLACEMENT_3D('',#496,#395,#396);
#331=AXIS2_PLACEMENT_3D('',#499,#397,#398);
#332=AXIS2_PLACEMENT_3D('',#500,#399,#400);
#333=AXIS2_PLACEMENT_3D('',#503,#402,#403);
#334=AXIS2_PLACEMENT_3D('',#504,#404,#405);
#335=AXIS2_PLACEMENT_3D('',#506,#406,#407);
#336=AXIS2_PLACEMENT_3D('',#508,#409,#410);
#337=AXIS2_PLACEMENT_3D('',#510,#411,#412);
#338=AXIS2_PLACEMENT_3D('',#511,#413,#414);
#339=AXIS2_PLACEMENT_3D('',#513,#415,#416);
#340=AXIS2_PLACEMENT_3D('',#517,#418,#419);
#341=AXIS2_PLACEMENT_3D('',#518,#420,#421);
#342=AXIS2_PLACEMENT_3D('',#519,#422,#423);
#343=AXIS2_PLACEMENT_3D('',#521,#424,#425);
#344=AXIS2_PLACEMENT_3D('',#522,#426,#427);
#345=AXIS2_PLACEMENT_3D('',#525,#429,#430);
#346=AXIS2_PLACEMENT_3D('',#526,#431,#432);
#347=AXIS2_PLACEMENT_3D('',#528,#433,#434);
#348=AXIS2_PLACEMENT_3D('',#531,#436,#437);
#349=AXIS2_PLACEMENT_3D('',#532,#438,#439);
#350=AXIS2_PLACEMENT_3D('',#534,#440,#441);
#351=AXIS2_PLACEMENT_3D('',#536,#443,#444);
#352=AXIS2_PLACEMENT_3D('',#538,#445,#446);
#353=AXIS2_PLACEMENT_3D('',#539,#447,#448);
#354=AXIS2_PLACEMENT_3D('',#541,#449,#450);
#355=AXIS2_PLACEMENT_3D('',#542,#451,#452);
#356=AXIS2_PLACEMENT_3D('',#543,#453,#454);
#357=AXIS2_PLACEMENT_3D('',#545,#456,#457);
#358=AXIS2_PLACEMENT_3D('',#546,#458,#459);
#359=AXIS2_PLACEMENT_3D('',#547,#460,#461);
#360=AXIS2_PLACEMENT_3D('',#548,#462,#463);
#361=AXIS2_PLACEMENT_3D('',#549,#464,#465);
#362=AXIS2_PLACEMENT_3D('',#551,#466,#467);
#363=AXIS2_PLACEMENT_3D('',#552,#468,#469);
#364=DIRECTION('axis',(0.,0.,1.));
#365=DIRECTION('refdir',(1.,0.,0.));
#366=DIRECTION('center_axis',(1.,0.,0.));
#367=DIRECTION('ref_axis',(0.,0.,-1.));
#368=DIRECTION('center_axis',(1.,0.,0.));
#369=DIRECTION('ref_axis',(0.,0.,-1.));
#370=DIRECTION('',(0.707106781186548,8.65956056235493E-17,0.707106781186548));
#371=DIRECTION('center_axis',(-1.,0.,0.));
#372=DIRECTION('ref_axis',(0.,0.,-1.));
#373=DIRECTION('center_axis',(-1.,0.,0.));
#374=DIRECTION('ref_axis',(0.,0.,-1.));
#375=DIRECTION('center_axis',(-1.,0.,0.));
#376=DIRECTION('ref_axis',(0.,0.,1.));
#377=DIRECTION('',(1.,0.,0.));
#378=DIRECTION('center_axis',(1.,0.,0.));
#379=DIRECTION('ref_axis',(0.,0.,-1.));
#380=DIRECTION('center_axis',(1.,0.,0.));
#381=DIRECTION('ref_axis',(0.,0.,-1.));
#382=DIRECTION('center_axis',(-1.,0.,0.));
#383=DIRECTION('ref_axis',(0.,0.,1.));
#384=DIRECTION('center_axis',(-1.,0.,0.));
#385=DIRECTION('ref_axis',(0.,1.22464679914735E-16,-1.));
#386=DIRECTION('center_axis',(-1.,0.,0.));
#387=DIRECTION('ref_axis',(0.,0.,-1.));
#388=DIRECTION('',(0.707106781186549,-8.65956056235491E-17,-0.707106781186546));
#389=DIRECTION('center_axis',(-1.,0.,0.));
#390=DIRECTION('ref_axis',(0.,0.,-1.));
#391=DIRECTION('center_axis',(1.,0.,0.));
#392=DIRECTION('ref_axis',(0.,0.,-1.));
#393=DIRECTION('center_axis',(1.,0.,0.));
#394=DIRECTION('ref_axis',(0.,1.22464679914735E-16,-1.));
#395=DIRECTION('center_axis',(-1.,0.,0.));
#396=DIRECTION('ref_axis',(0.,0.,-1.));
#397=DIRECTION('center_axis',(1.,0.,0.));
#398=DIRECTION('ref_axis',(0.,0.,-1.));
#399=DIRECTION('center_axis',(1.,0.,0.));
#400=DIRECTION('ref_axis',(0.,0.,-1.));
#401=DIRECTION('',(0.707106781186549,-8.65956056235491E-17,-0.707106781186546));
#402=DIRECTION('center_axis',(-1.,0.,0.));
#403=DIRECTION('ref_axis',(0.,0.,-1.));
#404=DIRECTION('center_axis',(-1.,0.,0.));
#405=DIRECTION('ref_axis',(0.,0.,1.));
#406=DIRECTION('center_axis',(-1.,0.,0.));
#407=DIRECTION('ref_axis',(0.,1.22464679914735E-16,-1.));
#408=DIRECTION('',(1.,0.,0.));
#409=DIRECTION('center_axis',(1.,0.,0.));
#410=DIRECTION('ref_axis',(0.,0.,-1.));
#411=DIRECTION('center_axis',(-1.,0.,0.));
#412=DIRECTION('ref_axis',(0.,0.,-1.));
#413=DIRECTION('center_axis',(1.,0.,0.));
#414=DIRECTION('ref_axis',(0.,0.,-1.));
#415=DIRECTION('center_axis',(1.,0.,0.));
#416=DIRECTION('ref_axis',(0.,0.,-1.));
#417=DIRECTION('',(0.707106781186551,8.65956056235489E-17,0.707106781186544));
#418=DIRECTION('center_axis',(-1.,0.,0.));
#419=DIRECTION('ref_axis',(0.,0.,-1.));
#420=DIRECTION('center_axis',(-1.,0.,0.));
#421=DIRECTION('ref_axis',(0.,0.,-1.));
#422=DIRECTION('center_axis',(-1.,0.,0.));
#423=DIRECTION('ref_axis',(0.,0.,1.));
#424=DIRECTION('center_axis',(-1.,0.,0.));
#425=DIRECTION('ref_axis',(0.,1.22464679914735E-16,-1.));
#426=DIRECTION('center_axis',(-1.,0.,0.));
#427=DIRECTION('ref_axis',(0.,0.,1.));
#428=DIRECTION('',(1.,0.,0.));
#429=DIRECTION('center_axis',(1.,0.,0.));
#430=DIRECTION('ref_axis',(0.,1.22464679914735E-16,-1.));
#431=DIRECTION('center_axis',(-1.,0.,0.));
#432=DIRECTION('ref_axis',(0.,0.,-1.));
#433=DIRECTION('center_axis',(-1.,0.,0.));
#434=DIRECTION('ref_axis',(0.,0.,-1.));
#435=DIRECTION('',(0.707106781186552,-8.65956056235488E-17,-0.707106781186543));
#436=DIRECTION('center_axis',(1.,0.,0.));
#437=DIRECTION('ref_axis',(0.,0.,-1.));
#438=DIRECTION('center_axis',(1.,0.,0.));
#439=DIRECTION('ref_axis',(0.,0.,-1.));
#440=DIRECTION('center_axis',(1.,0.,0.));
#441=DIRECTION('ref_axis',(0.,0.,-1.));
#442=DIRECTION('',(-1.,0.,0.));
#443=DIRECTION('center_axis',(-1.,0.,0.));
#444=DIRECTION('ref_axis',(0.,0.,1.));
#445=DIRECTION('center_axis',(-1.,0.,0.));
#446=DIRECTION('ref_axis',(0.,0.,1.));
#447=DIRECTION('center_axis',(-1.,0.,0.));
#448=DIRECTION('ref_axis',(0.,0.,1.));
#449=DIRECTION('center_axis',(0.,-1.,1.22464679914735E-16));
#450=DIRECTION('ref_axis',(0.,-1.22464679914735E-16,-1.));
#451=DIRECTION('center_axis',(1.,0.,0.));
#452=DIRECTION('ref_axis',(0.,1.22464679914735E-16,-1.));
#453=DIRECTION('center_axis',(-1.,0.,0.));
#454=DIRECTION('ref_axis',(0.,0.,1.));
#455=DIRECTION('',(1.,0.,0.));
#456=DIRECTION('center_axis',(-1.,0.,0.));
#457=DIRECTION('ref_axis',(0.,0.,1.));
#458=DIRECTION('center_axis',(0.,-1.,1.22464679914735E-16));
#459=DIRECTION('ref_axis',(0.,-1.22464679914735E-16,-1.));
#460=DIRECTION('center_axis',(-1.,0.,0.));
#461=DIRECTION('ref_axis',(0.,0.,1.));
#462=DIRECTION('center_axis',(0.,-1.,1.22464679914735E-16));
#463=DIRECTION('ref_axis',(0.,-1.22464679914735E-16,-1.));
#464=DIRECTION('center_axis',(1.,0.,0.));
#465=DIRECTION('ref_axis',(0.,0.,-1.));
#466=DIRECTION('center_axis',(1.,0.,0.));
#467=DIRECTION('ref_axis',(0.,0.,-1.));
#468=DIRECTION('center_axis',(1.,0.,0.));
#469=DIRECTION('ref_axis',(0.,0.,-1.));
#470=DIRECTION('',(-1.,0.,0.));
#471=CARTESIAN_POINT('',(0.,0.,0.));
#472=CARTESIAN_POINT('Origin',(-24.95,0.,0.));
#473=CARTESIAN_POINT('',(-25.2,-3.10447963583854E-15,25.35));
#474=CARTESIAN_POINT('Origin',(-25.2,0.,0.));
#475=CARTESIAN_POINT('',(-24.7,3.16571197579591E-15,25.85));
#476=CARTESIAN_POINT('',(-24.95,3.13509580581723E-15,25.6));
#477=CARTESIAN_POINT('',(-24.7,-3.16571197579591E-15,-25.85));
#478=CARTESIAN_POINT('Origin',(-24.7,0.,0.));
#479=CARTESIAN_POINT('Origin',(-24.7,0.,0.));
#480=CARTESIAN_POINT('Origin',(-20.15,0.,0.));
#481=CARTESIAN_POINT('',(-15.6,-3.16571197579591E-15,-25.85));
#482=CARTESIAN_POINT('',(-20.15,-3.16571197579591E-15,-25.85));
#483=CARTESIAN_POINT('',(-15.6,-3.16571197579591E-15,25.85));
#484=CARTESIAN_POINT('Origin',(-15.6,0.,0.));
#485=CARTESIAN_POINT('Origin',(-15.6,0.,0.));
#486=CARTESIAN_POINT('Origin',(-25.2,0.,19.3));
#487=CARTESIAN_POINT('',(-25.2,-2.38806125833734E-15,-19.5));
#488=CARTESIAN_POINT('Origin',(-25.2,0.,0.));
#489=CARTESIAN_POINT('Origin',(-15.35,0.,0.));
#490=CARTESIAN_POINT('',(-15.1,3.10447963583854E-15,25.35));
#491=CARTESIAN_POINT('',(-15.35,3.13509580581723E-15,25.6));
#492=CARTESIAN_POINT('Origin',(-15.1,0.,0.));
#493=CARTESIAN_POINT('Origin',(-15.1,0.,25.85));
#494=CARTESIAN_POINT('',(-15.1,-2.38806125833734E-15,-19.5));
#495=CARTESIAN_POINT('Origin',(-15.1,0.,0.));
#496=CARTESIAN_POINT('Origin',(-0.125,0.,0.));
#497=CARTESIAN_POINT('',(-0.25,-2.36356832235439E-15,19.3));
#498=CARTESIAN_POINT('',(-0.25,-2.36356832235439E-15,-19.3));
#499=CARTESIAN_POINT('Origin',(-0.25,0.,0.));
#500=CARTESIAN_POINT('Origin',(-0.25,0.,0.));
#501=CARTESIAN_POINT('',(0.,2.33295215237571E-15,19.05));
#502=CARTESIAN_POINT('',(-0.125,2.34826023736505E-15,19.175));
#503=CARTESIAN_POINT('Origin',(0.,0.,0.));
#504=CARTESIAN_POINT('Origin',(-7.55,0.,0.));
#505=CARTESIAN_POINT('',(-14.9,-2.36356832235439E-15,-19.3));
#506=CARTESIAN_POINT('Origin',(-14.9,0.,0.));
#507=CARTESIAN_POINT('',(-7.55,-2.36356832235439E-15,-19.3));
#508=CARTESIAN_POINT('Origin',(0.,0.,19.3));
#509=CARTESIAN_POINT('',(0.,-1.22464679914735E-15,10.));
#510=CARTESIAN_POINT('Origin',(0.,0.,0.));
#511=CARTESIAN_POINT('Origin',(-39.575,0.,0.));
#512=CARTESIAN_POINT('',(-39.7,-2.33295215237571E-15,19.05));
#513=CARTESIAN_POINT('Origin',(-39.7,0.,0.));
#514=CARTESIAN_POINT('',(-39.45,2.36356832235439E-15,19.3));
#515=CARTESIAN_POINT('',(-39.575,2.34826023736505E-15,19.175));
#516=CARTESIAN_POINT('',(-39.45,-2.36356832235439E-15,-19.3));
#517=CARTESIAN_POINT('Origin',(-39.45,0.,0.));
#518=CARTESIAN_POINT('Origin',(-39.45,0.,0.));
#519=CARTESIAN_POINT('Origin',(-39.7,0.,10.1));
#520=CARTESIAN_POINT('',(-39.7,-1.26138620312178E-15,-10.3));
#521=CARTESIAN_POINT('Origin',(-39.7,0.,0.));
#522=CARTESIAN_POINT('Origin',(-32.45,0.,0.));
#523=CARTESIAN_POINT('',(-25.4,-2.36356832235439E-15,-19.3));
#524=CARTESIAN_POINT('',(-32.45,-2.36356832235439E-15,-19.3));
#525=CARTESIAN_POINT('Origin',(-25.4,0.,0.));
#526=CARTESIAN_POINT('Origin',(-43.175,0.,0.));
#527=CARTESIAN_POINT('',(-43.3,5.51091059616309E-16,4.5));
#528=CARTESIAN_POINT('Origin',(-43.3,0.,0.));
#529=CARTESIAN_POINT('',(-43.05,-5.20474889637625E-16,4.25));
#530=CARTESIAN_POINT('',(-43.175,5.35782974626967E-16,4.375));
#531=CARTESIAN_POINT('Origin',(-43.05,0.,0.));
#532=CARTESIAN_POINT('Origin',(-84.9745255944392,0.,0.));
#533=CARTESIAN_POINT('',(-10.,-5.20474889637625E-16,4.25));
#534=CARTESIAN_POINT('Origin',(-10.,0.,0.));
#535=CARTESIAN_POINT('',(-84.9745255944392,-5.20474889637625E-16,4.25));
#536=CARTESIAN_POINT('Origin',(-43.3,0.,0.));
#537=CARTESIAN_POINT('',(-43.3,-1.23689326713883E-15,-10.1));
#538=CARTESIAN_POINT('Origin',(-43.3,0.,0.));
#539=CARTESIAN_POINT('Origin',(-39.9,0.,0.));
#540=CARTESIAN_POINT('',(-39.9,-1.23689326713883E-15,-10.1));
#541=CARTESIAN_POINT('Origin',(-39.9,-1.26138620312178E-15,-10.3));
#542=CARTESIAN_POINT('Origin',(-39.9,0.,0.));
#543=CARTESIAN_POINT('Origin',(-41.5,0.,0.));
#544=CARTESIAN_POINT('',(-41.5,-1.23689326713883E-15,-10.1));
#545=CARTESIAN_POINT('Origin',(-25.4,0.,0.));
#546=CARTESIAN_POINT('Origin',(-25.4,-2.38806125833734E-15,-19.5));
#547=CARTESIAN_POINT('Origin',(-14.9,0.,0.));
#548=CARTESIAN_POINT('Origin',(-14.9,-2.38806125833734E-15,-19.5));
#549=CARTESIAN_POINT('Origin',(-10.,0.,0.));
#550=CARTESIAN_POINT('',(-10.,-1.22464679914735E-15,10.));
#551=CARTESIAN_POINT('Origin',(-10.,0.,0.));
#552=CARTESIAN_POINT('Origin',(-5.,0.,0.));
#553=CARTESIAN_POINT('',(-5.,-1.22464679914735E-15,10.));
#554=UNCERTAINTY_MEASURE_WITH_UNIT(LENGTH_MEASURE(0.01),#558,
'DISTANCE_ACCURACY_VALUE',
'Maximum model space distance between geometric entities at asserted c
onnectivities');
#555=UNCERTAINTY_MEASURE_WITH_UNIT(LENGTH_MEASURE(0.01),#558,
'DISTANCE_ACCURACY_VALUE',
'Maximum model space distance between geometric entities at asserted c
onnectivities');
#556=(
GEOMETRIC_REPRESENTATION_CONTEXT(3)
GLOBAL_UNCERTAINTY_ASSIGNED_CONTEXT((#554))
GLOBAL_UNIT_ASSIGNED_CONTEXT((#558,#560,#561))
REPRESENTATION_CONTEXT('','3D')
);
#557=(
GEOMETRIC_REPRESENTATION_CONTEXT(3)
GLOBAL_UNCERTAINTY_ASSIGNED_CONTEXT((#555))
GLOBAL_UNIT_ASSIGNED_CONTEXT((#558,#560,#561))
REPRESENTATION_CONTEXT('','3D')
);
#558=(
LENGTH_UNIT()
NAMED_UNIT(*)
SI_UNIT(.MILLI.,.METRE.)
);
#559=(
LENGTH_UNIT()
NAMED_UNIT(*)
SI_UNIT(.CENTI.,.METRE.)
);
#560=(
NAMED_UNIT(*)
PLANE_ANGLE_UNIT()
SI_UNIT($,.RADIAN.)
);
#561=(
NAMED_UNIT(*)
SI_UNIT($,.STERADIAN.)
SOLID_ANGLE_UNIT()
);
#562=SHAPE_DEFINITION_REPRESENTATION(#563,#564);
#563=PRODUCT_DEFINITION_SHAPE('',$,#566);
#564=SHAPE_REPRESENTATION('',(#316),#556);
#565=PRODUCT_DEFINITION_CONTEXT('part definition',#570,'design');
#566=PRODUCT_DEFINITION('50mm.10.5','50mm.10.5',#567,#565);
#567=PRODUCT_DEFINITION_FORMATION('',$,#572);
#568=PRODUCT_RELATED_PRODUCT_CATEGORY('50mm.10.5','50mm.10.5',(#572));
#569=APPLICATION_PROTOCOL_DEFINITION('international standard',
'automotive_design',2009,#570);
#570=APPLICATION_CONTEXT(
'Core Data for Automotive Mechanical Design Process');
#571=PRODUCT_CONTEXT('part definition',#570,'mechanical');
#572=PRODUCT('50mm.10.5','50mm.10.5',$,(#571));
#573=PRESENTATION_STYLE_ASSIGNMENT((#574));
#574=SURFACE_STYLE_USAGE(.BOTH.,#577);
#575=SURFACE_STYLE_RENDERING_WITH_PROPERTIES($,#581,(#576));
#576=SURFACE_STYLE_TRANSPARENT(0.);
#577=SURFACE_SIDE_STYLE('',(#578,#575));
#578=SURFACE_STYLE_FILL_AREA(#579);
#579=FILL_AREA_STYLE('',(#580));
#580=FILL_AREA_STYLE_COLOUR('',#581);
#581=COLOUR_RGB('',0.250980392156863,0.250980392156863,0.250980392156863);
ENDSEC;
END-ISO-10303-21;
